 0
SECTION
 2
HEADER
0
ENDSEC
 0
SECTION
 2
TABLES
 0
TABLE
 2
LAYER
 70
1
 0
LAYER
 2
0
 70
0
 62
15
 6
CONTINUOUS
 0
ENDTAB
0
ENDSEC
 0
SECTION
2
ENTITIES
 0
POLYLINE
 8
0
 6
CONTINUOUS
 62
 10
 66
1
 10
0
 20
0
 30
0
 70
9
 0
VERTEX
 8
0
 6
CONTINUOUS
 62
 10
 10
1.93
 20
304.9426
 30
0
 42
0
 70
32
 0
VERTEX
 8
0
 6
CONTINUOUS
 62
 10
 10
-430
 20
-305
 30
0
 42
0
 70
32
 0
VERTEX
 8
0
 6
CONTINUOUS
 62
 10
 10
-430
 20
305
 30
0
 42
0
 70
32
 0
VERTEX
 8
0
 6
CONTINUOUS
 62
 10
 10
1.9312
 20
305
 30
0
 42
0
 70
32
 0
SEQEND
 8
0
 62
 10
 0
POLYLINE
 8
0
 6
CONTINUOUS
 62
 10
 66
1
 10
0
 20
0
 30
0
 70
9
 0
VERTEX
 8
0
 6
CONTINUOUS
 62
 10
 10
1.93
 20
304.9426
 30
220
 42
0
 70
32
 0
VERTEX
 8
0
 6
CONTINUOUS
 62
 10
 10
-430
 20
-305
 30
220
 42
0
 70
32
 0
VERTEX
 8
0
 6
CONTINUOUS
 62
 10
 10
18.4411
 20
-305
 30
220
 42
0
 70
32
 0
VERTEX
 8
0
 6
CONTINUOUS
 62
 10
 10
55.7144
 20
-301.2151
 30
220
 42
0
 70
32
 0
VERTEX
 8
0
 6
CONTINUOUS
 62
 10
 10
109.4642
 20
-285.4968
 30
220
 42
0
 70
32
 0
VERTEX
 8
0
 6
CONTINUOUS
 62
 10
 10
159.4483
 20
-260.2443
 30
220
 42
0
 70
32
 0
VERTEX
 8
0
 6
CONTINUOUS
 62
 10
 10
203.9919
 20
-226.3037
 30
220
 42
0
 70
32
 0
VERTEX
 8
0
 6
CONTINUOUS
 62
 10
 10
241.6026
 20
-184.8122
 30
220
 42
0
 70
32
 0
VERTEX
 8
0
 6
CONTINUOUS
 62
 10
 10
271.02
 20
-137.1602
 30
220
 42
0
 70
32
 0
VERTEX
 8
0
 6
CONTINUOUS
 62
 10
 10
291.2586
 20
-84.9443
 30
220
 42
0
 70
32
 0
VERTEX
 8
0
 6
CONTINUOUS
 62
 10
 10
301.6401
 20
-29.9141
 30
220
 42
0
 70
32
 0
VERTEX
 8
0
 6
CONTINUOUS
 62
 10
 10
301.8168
 20
26.0865
 30
220
 42
0
 70
32
 0
VERTEX
 8
0
 6
CONTINUOUS
 62
 10
 10
291.7826
 20
81.1811
 30
220
 42
0
 70
32
 0
VERTEX
 8
0
 6
CONTINUOUS
 62
 10
 10
271.8739
 20
133.5237
 30
220
 42
0
 70
32
 0
VERTEX
 8
0
 6
CONTINUOUS
 62
 10
 10
242.7577
 20
181.3604
 30
220
 42
0
 70
32
 0
VERTEX
 8
0
 6
CONTINUOUS
 62
 10
 10
205.4095
 20
223.0883
 30
220
 42
0
 70
32
 0
VERTEX
 8
0
 6
CONTINUOUS
 62
 10
 10
161.0809
 20
257.3092
 30
220
 42
0
 70
32
 0
VERTEX
 8
0
 6
CONTINUOUS
 62
 10
 10
111.2571
 20
282.8766
 30
220
 42
0
 70
32
 0
VERTEX
 8
0
 6
CONTINUOUS
 62
 10
 10
57.6076
 20
298.9337
 30
220
 42
0
 70
32
 0
SEQEND
 8
0
 62
 10
 0
POLYLINE
 8
0
 6
CONTINUOUS
 62
 10
 66
1
 10
0
 20
0
 30
0
 70
9
 0
VERTEX
 8
0
 6
CONTINUOUS
 62
 10
 10
-430
 20
-305
 30
220
 42
0
 70
32
 0
VERTEX
 8
0
 6
CONTINUOUS
 62
 10
 10
-430
 20
305
 30
220
 42
0
 70
32
 0
VERTEX
 8
0
 6
CONTINUOUS
 62
 10
 10
-430
 20
305
 30
0
 42
0
 70
32
 0
VERTEX
 8
0
 6
CONTINUOUS
 62
 10
 10
-430
 20
-305
 30
0
 42
0
 70
32
 0
SEQEND
 8
0
 62
 10
 0
POLYLINE
 8
0
 6
CONTINUOUS
 62
 10
 66
1
 10
0
 20
0
 30
0
 70
9
 0
VERTEX
 8
0
 6
CONTINUOUS
 62
 10
 10
-430
 20
305
 30
220
 42
0
 70
32
 0
VERTEX
 8
0
 6
CONTINUOUS
 62
 10
 10
1.9312
 20
305
 30
220
 42
0
 70
32
 0
VERTEX
 8
0
 6
CONTINUOUS
 62
 10
 10
1.9312
 20
305
 30
0
 42
0
 70
32
 0
VERTEX
 8
0
 6
CONTINUOUS
 62
 10
 10
-430
 20
305
 30
0
 42
0
 70
32
 0
SEQEND
 8
0
 62
 10
 0
POLYLINE
 8
0
 6
CONTINUOUS
 62
 10
 66
1
 10
0
 20
0
 30
0
 70
9
 0
VERTEX
 8
0
 6
CONTINUOUS
 62
 10
 10
18.4411
 20
-305
 30
220
 42
0
 70
32
 0
VERTEX
 8
0
 6
CONTINUOUS
 62
 10
 10
-430
 20
-305
 30
220
 42
0
 70
32
 0
VERTEX
 8
0
 6
CONTINUOUS
 62
 10
 10
-430
 20
-305
 30
0
 42
0
 70
32
 0
VERTEX
 8
0
 6
CONTINUOUS
 62
 10
 10
18.4411
 20
-305
 30
0
 42
0
 70
32
 0
SEQEND
 8
0
 62
 10
 0
POLYLINE
 8
0
 6
CONTINUOUS
 62
 10
 66
1
 10
0
 20
0
 30
0
 70
9
 0
VERTEX
 8
0
 6
CONTINUOUS
 62
 10
 10
1.9312
 20
305
 30
220
 42
0
 70
32
 0
VERTEX
 8
0
 6
CONTINUOUS
 62
 10
 10
1.93
 20
304.9426
 30
220
 42
0
 70
32
 0
VERTEX
 8
0
 6
CONTINUOUS
 62
 10
 10
1.93
 20
304.9426
 30
0
 42
0
 70
32
 0
VERTEX
 8
0
 6
CONTINUOUS
 62
 10
 10
1.9312
 20
305
 30
0
 42
0
 70
32
 0
SEQEND
 8
0
 62
 10
 0
POLYLINE
 8
0
 6
CONTINUOUS
 62
 10
 66
1
 10
0
 20
0
 30
0
 70
9
 0
VERTEX
 8
0
 6
CONTINUOUS
 62
 10
 10
57.6076
 20
298.9337
 30
0
 42
0
 70
32
 0
VERTEX
 8
0
 6
CONTINUOUS
 62
 10
 10
1.93
 20
304.9426
 30
0
 42
0
 70
32
 0
VERTEX
 8
0
 6
CONTINUOUS
 62
 10
 10
1.93
 20
304.9426
 30
220
 42
0
 70
32
 0
VERTEX
 8
0
 6
CONTINUOUS
 62
 10
 10
57.6076
 20
298.9337
 30
220
 42
0
 70
32
 0
SEQEND
 8
0
 62
 10
 0
POLYLINE
 8
0
 6
CONTINUOUS
 62
 10
 66
1
 10
0
 20
0
 30
0
 70
9
 0
VERTEX
 8
0
 6
CONTINUOUS
 62
 10
 10
111.2571
 20
282.8766
 30
0
 42
0
 70
32
 0
VERTEX
 8
0
 6
CONTINUOUS
 62
 10
 10
57.6076
 20
298.9337
 30
0
 42
0
 70
32
 0
VERTEX
 8
0
 6
CONTINUOUS
 62
 10
 10
57.6076
 20
298.9337
 30
220
 42
0
 70
32
 0
VERTEX
 8
0
 6
CONTINUOUS
 62
 10
 10
111.2571
 20
282.8766
 30
220
 42
0
 70
32
 0
SEQEND
 8
0
 62
 10
 0
POLYLINE
 8
0
 6
CONTINUOUS
 62
 10
 66
1
 10
0
 20
0
 30
0
 70
9
 0
VERTEX
 8
0
 6
CONTINUOUS
 62
 10
 10
161.0809
 20
257.3092
 30
0
 42
0
 70
32
 0
VERTEX
 8
0
 6
CONTINUOUS
 62
 10
 10
111.2571
 20
282.8766
 30
0
 42
0
 70
32
 0
VERTEX
 8
0
 6
CONTINUOUS
 62
 10
 10
111.2571
 20
282.8766
 30
220
 42
0
 70
32
 0
VERTEX
 8
0
 6
CONTINUOUS
 62
 10
 10
161.0809
 20
257.3092
 30
220
 42
0
 70
32
 0
SEQEND
 8
0
 62
 10
 0
POLYLINE
 8
0
 6
CONTINUOUS
 62
 10
 66
1
 10
0
 20
0
 30
0
 70
9
 0
VERTEX
 8
0
 6
CONTINUOUS
 62
 10
 10
205.4095
 20
223.0883
 30
0
 42
0
 70
32
 0
VERTEX
 8
0
 6
CONTINUOUS
 62
 10
 10
161.0809
 20
257.3092
 30
0
 42
0
 70
32
 0
VERTEX
 8
0
 6
CONTINUOUS
 62
 10
 10
161.0809
 20
257.3092
 30
220
 42
0
 70
32
 0
VERTEX
 8
0
 6
CONTINUOUS
 62
 10
 10
205.4095
 20
223.0883
 30
220
 42
0
 70
32
 0
SEQEND
 8
0
 62
 10
 0
POLYLINE
 8
0
 6
CONTINUOUS
 62
 10
 66
1
 10
0
 20
0
 30
0
 70
9
 0
VERTEX
 8
0
 6
CONTINUOUS
 62
 10
 10
242.7577
 20
181.3604
 30
0
 42
0
 70
32
 0
VERTEX
 8
0
 6
CONTINUOUS
 62
 10
 10
205.4095
 20
223.0883
 30
0
 42
0
 70
32
 0
VERTEX
 8
0
 6
CONTINUOUS
 62
 10
 10
205.4095
 20
223.0883
 30
220
 42
0
 70
32
 0
VERTEX
 8
0
 6
CONTINUOUS
 62
 10
 10
242.7577
 20
181.3604
 30
220
 42
0
 70
32
 0
SEQEND
 8
0
 62
 10
 0
POLYLINE
 8
0
 6
CONTINUOUS
 62
 10
 66
1
 10
0
 20
0
 30
0
 70
9
 0
VERTEX
 8
0
 6
CONTINUOUS
 62
 10
 10
271.8739
 20
133.5237
 30
0
 42
0
 70
32
 0
VERTEX
 8
0
 6
CONTINUOUS
 62
 10
 10
242.7577
 20
181.3604
 30
0
 42
0
 70
32
 0
VERTEX
 8
0
 6
CONTINUOUS
 62
 10
 10
242.7577
 20
181.3604
 30
220
 42
0
 70
32
 0
VERTEX
 8
0
 6
CONTINUOUS
 62
 10
 10
271.8739
 20
133.5237
 30
220
 42
0
 70
32
 0
SEQEND
 8
0
 62
 10
 0
POLYLINE
 8
0
 6
CONTINUOUS
 62
 10
 66
1
 10
0
 20
0
 30
0
 70
9
 0
VERTEX
 8
0
 6
CONTINUOUS
 62
 10
 10
291.7826
 20
81.1811
 30
0
 42
0
 70
32
 0
VERTEX
 8
0
 6
CONTINUOUS
 62
 10
 10
271.8739
 20
133.5237
 30
0
 42
0
 70
32
 0
VERTEX
 8
0
 6
CONTINUOUS
 62
 10
 10
271.8739
 20
133.5237
 30
220
 42
0
 70
32
 0
VERTEX
 8
0
 6
CONTINUOUS
 62
 10
 10
291.7826
 20
81.1811
 30
220
 42
0
 70
32
 0
SEQEND
 8
0
 62
 10
 0
POLYLINE
 8
0
 6
CONTINUOUS
 62
 10
 66
1
 10
0
 20
0
 30
0
 70
9
 0
VERTEX
 8
0
 6
CONTINUOUS
 62
 10
 10
301.8168
 20
26.0865
 30
0
 42
0
 70
32
 0
VERTEX
 8
0
 6
CONTINUOUS
 62
 10
 10
291.7826
 20
81.1811
 30
0
 42
0
 70
32
 0
VERTEX
 8
0
 6
CONTINUOUS
 62
 10
 10
291.7826
 20
81.1811
 30
220
 42
0
 70
32
 0
VERTEX
 8
0
 6
CONTINUOUS
 62
 10
 10
301.8168
 20
26.0865
 30
220
 42
0
 70
32
 0
SEQEND
 8
0
 62
 10
 0
POLYLINE
 8
0
 6
CONTINUOUS
 62
 10
 66
1
 10
0
 20
0
 30
0
 70
9
 0
VERTEX
 8
0
 6
CONTINUOUS
 62
 10
 10
301.6401
 20
-29.9141
 30
0
 42
0
 70
32
 0
VERTEX
 8
0
 6
CONTINUOUS
 62
 10
 10
301.8168
 20
26.0865
 30
0
 42
0
 70
32
 0
VERTEX
 8
0
 6
CONTINUOUS
 62
 10
 10
301.8168
 20
26.0865
 30
220
 42
0
 70
32
 0
VERTEX
 8
0
 6
CONTINUOUS
 62
 10
 10
301.6401
 20
-29.9141
 30
220
 42
0
 70
32
 0
SEQEND
 8
0
 62
 10
 0
POLYLINE
 8
0
 6
CONTINUOUS
 62
 10
 66
1
 10
0
 20
0
 30
0
 70
9
 0
VERTEX
 8
0
 6
CONTINUOUS
 62
 10
 10
291.2586
 20
-84.9443
 30
0
 42
0
 70
32
 0
VERTEX
 8
0
 6
CONTINUOUS
 62
 10
 10
301.6401
 20
-29.9141
 30
0
 42
0
 70
32
 0
VERTEX
 8
0
 6
CONTINUOUS
 62
 10
 10
301.6401
 20
-29.9141
 30
220
 42
0
 70
32
 0
VERTEX
 8
0
 6
CONTINUOUS
 62
 10
 10
291.2586
 20
-84.9443
 30
220
 42
0
 70
32
 0
SEQEND
 8
0
 62
 10
 0
POLYLINE
 8
0
 6
CONTINUOUS
 62
 10
 66
1
 10
0
 20
0
 30
0
 70
9
 0
VERTEX
 8
0
 6
CONTINUOUS
 62
 10
 10
271.02
 20
-137.1602
 30
0
 42
0
 70
32
 0
VERTEX
 8
0
 6
CONTINUOUS
 62
 10
 10
291.2586
 20
-84.9443
 30
0
 42
0
 70
32
 0
VERTEX
 8
0
 6
CONTINUOUS
 62
 10
 10
291.2586
 20
-84.9443
 30
220
 42
0
 70
32
 0
VERTEX
 8
0
 6
CONTINUOUS
 62
 10
 10
271.02
 20
-137.1602
 30
220
 42
0
 70
32
 0
SEQEND
 8
0
 62
 10
 0
POLYLINE
 8
0
 6
CONTINUOUS
 62
 10
 66
1
 10
0
 20
0
 30
0
 70
9
 0
VERTEX
 8
0
 6
CONTINUOUS
 62
 10
 10
241.6026
 20
-184.8122
 30
0
 42
0
 70
32
 0
VERTEX
 8
0
 6
CONTINUOUS
 62
 10
 10
271.02
 20
-137.1602
 30
0
 42
0
 70
32
 0
VERTEX
 8
0
 6
CONTINUOUS
 62
 10
 10
271.02
 20
-137.1602
 30
220
 42
0
 70
32
 0
VERTEX
 8
0
 6
CONTINUOUS
 62
 10
 10
241.6026
 20
-184.8122
 30
220
 42
0
 70
32
 0
SEQEND
 8
0
 62
 10
 0
POLYLINE
 8
0
 6
CONTINUOUS
 62
 10
 66
1
 10
0
 20
0
 30
0
 70
9
 0
VERTEX
 8
0
 6
CONTINUOUS
 62
 10
 10
203.9919
 20
-226.3037
 30
0
 42
0
 70
32
 0
VERTEX
 8
0
 6
CONTINUOUS
 62
 10
 10
241.6026
 20
-184.8122
 30
0
 42
0
 70
32
 0
VERTEX
 8
0
 6
CONTINUOUS
 62
 10
 10
241.6026
 20
-184.8122
 30
220
 42
0
 70
32
 0
VERTEX
 8
0
 6
CONTINUOUS
 62
 10
 10
203.9919
 20
-226.3037
 30
220
 42
0
 70
32
 0
SEQEND
 8
0
 62
 10
 0
POLYLINE
 8
0
 6
CONTINUOUS
 62
 10
 66
1
 10
0
 20
0
 30
0
 70
9
 0
VERTEX
 8
0
 6
CONTINUOUS
 62
 10
 10
159.4483
 20
-260.2443
 30
0
 42
0
 70
32
 0
VERTEX
 8
0
 6
CONTINUOUS
 62
 10
 10
203.9919
 20
-226.3037
 30
0
 42
0
 70
32
 0
VERTEX
 8
0
 6
CONTINUOUS
 62
 10
 10
203.9919
 20
-226.3037
 30
220
 42
0
 70
32
 0
VERTEX
 8
0
 6
CONTINUOUS
 62
 10
 10
159.4483
 20
-260.2443
 30
220
 42
0
 70
32
 0
SEQEND
 8
0
 62
 10
 0
POLYLINE
 8
0
 6
CONTINUOUS
 62
 10
 66
1
 10
0
 20
0
 30
0
 70
9
 0
VERTEX
 8
0
 6
CONTINUOUS
 62
 10
 10
109.4642
 20
-285.4968
 30
0
 42
0
 70
32
 0
VERTEX
 8
0
 6
CONTINUOUS
 62
 10
 10
159.4483
 20
-260.2443
 30
0
 42
0
 70
32
 0
VERTEX
 8
0
 6
CONTINUOUS
 62
 10
 10
159.4483
 20
-260.2443
 30
220
 42
0
 70
32
 0
VERTEX
 8
0
 6
CONTINUOUS
 62
 10
 10
109.4642
 20
-285.4968
 30
220
 42
0
 70
32
 0
SEQEND
 8
0
 62
 10
 0
POLYLINE
 8
0
 6
CONTINUOUS
 62
 10
 66
1
 10
0
 20
0
 30
0
 70
9
 0
VERTEX
 8
0
 6
CONTINUOUS
 62
 10
 10
55.7144
 20
-301.2151
 30
0
 42
0
 70
32
 0
VERTEX
 8
0
 6
CONTINUOUS
 62
 10
 10
109.4642
 20
-285.4968
 30
0
 42
0
 70
32
 0
VERTEX
 8
0
 6
CONTINUOUS
 62
 10
 10
109.4642
 20
-285.4968
 30
220
 42
0
 70
32
 0
VERTEX
 8
0
 6
CONTINUOUS
 62
 10
 10
55.7144
 20
-301.2151
 30
220
 42
0
 70
32
 0
SEQEND
 8
0
 62
 10
 0
POLYLINE
 8
0
 6
CONTINUOUS
 62
 10
 66
1
 10
0
 20
0
 30
0
 70
9
 0
VERTEX
 8
0
 6
CONTINUOUS
 62
 10
 10
55.7144
 20
-301.2151
 30
0
 42
0
 70
32
 0
VERTEX
 8
0
 6
CONTINUOUS
 62
 10
 10
55.7144
 20
-301.2151
 30
220
 42
0
 70
32
 0
VERTEX
 8
0
 6
CONTINUOUS
 62
 10
 10
18.4411
 20
-305
 30
220
 42
0
 70
32
 0
VERTEX
 8
0
 6
CONTINUOUS
 62
 10
 10
18.4411
 20
-305
 30
0
 42
0
 70
32
 0
SEQEND
 8
0
 62
 10
 0
POLYLINE
 8
0
 6
CONTINUOUS
 62
 10
 66
1
 10
0
 20
0
 30
0
 70
9
 0
VERTEX
 8
0
 6
CONTINUOUS
 62
 10
 10
18.4411
 20
-305
 30
0
 42
0
 70
32
 0
VERTEX
 8
0
 6
CONTINUOUS
 62
 10
 10
-430
 20
-305
 30
0
 42
0
 70
32
 0
VERTEX
 8
0
 6
CONTINUOUS
 62
 10
 10
1.93
 20
304.9426
 30
0
 42
0
 70
32
 0
VERTEX
 8
0
 6
CONTINUOUS
 62
 10
 10
57.6076
 20
298.9337
 30
0
 42
0
 70
32
 0
VERTEX
 8
0
 6
CONTINUOUS
 62
 10
 10
111.2571
 20
282.8766
 30
0
 42
0
 70
32
 0
VERTEX
 8
0
 6
CONTINUOUS
 62
 10
 10
161.0809
 20
257.3092
 30
0
 42
0
 70
32
 0
VERTEX
 8
0
 6
CONTINUOUS
 62
 10
 10
205.4095
 20
223.0883
 30
0
 42
0
 70
32
 0
VERTEX
 8
0
 6
CONTINUOUS
 62
 10
 10
242.7577
 20
181.3604
 30
0
 42
0
 70
32
 0
VERTEX
 8
0
 6
CONTINUOUS
 62
 10
 10
271.8739
 20
133.5237
 30
0
 42
0
 70
32
 0
VERTEX
 8
0
 6
CONTINUOUS
 62
 10
 10
291.7826
 20
81.1811
 30
0
 42
0
 70
32
 0
VERTEX
 8
0
 6
CONTINUOUS
 62
 10
 10
301.8168
 20
26.0865
 30
0
 42
0
 70
32
 0
VERTEX
 8
0
 6
CONTINUOUS
 62
 10
 10
301.6401
 20
-29.9141
 30
0
 42
0
 70
32
 0
VERTEX
 8
0
 6
CONTINUOUS
 62
 10
 10
291.2586
 20
-84.9443
 30
0
 42
0
 70
32
 0
VERTEX
 8
0
 6
CONTINUOUS
 62
 10
 10
271.02
 20
-137.1602
 30
0
 42
0
 70
32
 0
VERTEX
 8
0
 6
CONTINUOUS
 62
 10
 10
241.6026
 20
-184.8122
 30
0
 42
0
 70
32
 0
VERTEX
 8
0
 6
CONTINUOUS
 62
 10
 10
203.9919
 20
-226.3037
 30
0
 42
0
 70
32
 0
VERTEX
 8
0
 6
CONTINUOUS
 62
 10
 10
159.4483
 20
-260.2443
 30
0
 42
0
 70
32
 0
VERTEX
 8
0
 6
CONTINUOUS
 62
 10
 10
109.4642
 20
-285.4968
 30
0
 42
0
 70
32
 0
VERTEX
 8
0
 6
CONTINUOUS
 62
 10
 10
55.7144
 20
-301.2151
 30
0
 42
0
 70
32
 0
SEQEND
 8
0
 62
 10
 0
POLYLINE
 8
0
 6
CONTINUOUS
 62
 10
 66
1
 10
0
 20
0
 30
0
 70
9
 0
VERTEX
 8
0
 6
CONTINUOUS
 62
 10
 10
-430
 20
305
 30
220
 42
0
 70
32
 0
VERTEX
 8
0
 6
CONTINUOUS
 62
 10
 10
-430
 20
-305
 30
220
 42
0
 70
32
 0
VERTEX
 8
0
 6
CONTINUOUS
 62
 10
 10
1.93
 20
304.9426
 30
220
 42
0
 70
32
 0
VERTEX
 8
0
 6
CONTINUOUS
 62
 10
 10
1.9312
 20
305
 30
220
 42
0
 70
32
 0
SEQEND
 8
0
 62
 10
 0
POLYLINE
 8
0
 6
CONTINUOUS
 62
 10
 66
1
 10
-0
 20
0
 30
248.2394
 70
9
 0
VERTEX
 8
0
 6
CONTINUOUS
 62
 10
 10
-129.6859
 20
162.6209
 30
248.2394
 42
0
 70
32
 0
VERTEX
 8
0
 6
CONTINUOUS
 62
 10
 10
-46.2844
 20
202.785
 30
248.2394
 42
0
 70
32
 0
VERTEX
 8
0
 6
CONTINUOUS
 62
 10
 10
46.2844
 20
202.785
 30
248.2394
 42
0
 70
32
 0
VERTEX
 8
0
 6
CONTINUOUS
 62
 10
 10
129.6859
 20
162.6209
 30
248.2394
 42
0
 70
32
 0
VERTEX
 8
0
 6
CONTINUOUS
 62
 10
 10
187.4015
 20
90.2478
 30
248.2394
 42
0
 70
32
 0
VERTEX
 8
0
 6
CONTINUOUS
 62
 10
 10
208
 20
0
 30
248.2394
 42
0
 70
32
 0
VERTEX
 8
0
 6
CONTINUOUS
 62
 10
 10
187.4015
 20
-90.2478
 30
248.2394
 42
0
 70
32
 0
VERTEX
 8
0
 6
CONTINUOUS
 62
 10
 10
129.6859
 20
-162.6209
 30
248.2394
 42
0
 70
32
 0
VERTEX
 8
0
 6
CONTINUOUS
 62
 10
 10
46.2844
 20
-202.785
 30
248.2394
 42
0
 70
32
 0
VERTEX
 8
0
 6
CONTINUOUS
 62
 10
 10
-46.2844
 20
-202.785
 30
248.2394
 42
0
 70
32
 0
VERTEX
 8
0
 6
CONTINUOUS
 62
 10
 10
-129.6859
 20
-162.6209
 30
248.2394
 42
0
 70
32
 0
VERTEX
 8
0
 6
CONTINUOUS
 62
 10
 10
-187.4015
 20
-90.2478
 30
248.2394
 42
0
 70
32
 0
VERTEX
 8
0
 6
CONTINUOUS
 62
 10
 10
-208
 20
0
 30
248.2394
 42
0
 70
32
 0
VERTEX
 8
0
 6
CONTINUOUS
 62
 10
 10
-187.4015
 20
90.2478
 30
248.2394
 42
0
 70
32
 0
SEQEND
 8
0
 62
 10
 0
POLYLINE
 8
0
 6
CONTINUOUS
 62
 10
 66
1
 10
-0
 20
0
 30
248.2394
 70
9
 0
VERTEX
 8
0
 6
CONTINUOUS
 62
 10
 10
-129.6859
 20
162.6209
 30
308.2394
 42
0
 70
32
 0
VERTEX
 8
0
 6
CONTINUOUS
 62
 10
 10
-187.4015
 20
90.2478
 30
308.2394
 42
0
 70
32
 0
VERTEX
 8
0
 6
CONTINUOUS
 62
 10
 10
-208
 20
0
 30
308.2394
 42
0
 70
32
 0
VERTEX
 8
0
 6
CONTINUOUS
 62
 10
 10
-187.4015
 20
-90.2478
 30
308.2394
 42
0
 70
32
 0
VERTEX
 8
0
 6
CONTINUOUS
 62
 10
 10
-129.6859
 20
-162.6209
 30
308.2394
 42
0
 70
32
 0
VERTEX
 8
0
 6
CONTINUOUS
 62
 10
 10
-46.2844
 20
-202.785
 30
308.2394
 42
0
 70
32
 0
VERTEX
 8
0
 6
CONTINUOUS
 62
 10
 10
46.2844
 20
-202.785
 30
308.2394
 42
0
 70
32
 0
VERTEX
 8
0
 6
CONTINUOUS
 62
 10
 10
129.6859
 20
-162.6209
 30
308.2394
 42
0
 70
32
 0
VERTEX
 8
0
 6
CONTINUOUS
 62
 10
 10
187.4015
 20
-90.2478
 30
308.2394
 42
0
 70
32
 0
VERTEX
 8
0
 6
CONTINUOUS
 62
 10
 10
208
 20
0
 30
308.2394
 42
0
 70
32
 0
VERTEX
 8
0
 6
CONTINUOUS
 62
 10
 10
187.4015
 20
90.2478
 30
308.2394
 42
0
 70
32
 0
VERTEX
 8
0
 6
CONTINUOUS
 62
 10
 10
129.6859
 20
162.6209
 30
308.2394
 42
0
 70
32
 0
VERTEX
 8
0
 6
CONTINUOUS
 62
 10
 10
46.2844
 20
202.785
 30
308.2394
 42
0
 70
32
 0
VERTEX
 8
0
 6
CONTINUOUS
 62
 10
 10
-46.2844
 20
202.785
 30
308.2394
 42
0
 70
32
 0
SEQEND
 8
0
 62
 10
 0
POLYLINE
 8
0
 6
CONTINUOUS
 62
 10
 66
1
 10
-0
 20
0
 30
248.2394
 70
9
 0
VERTEX
 8
0
 6
CONTINUOUS
 62
 10
 10
-129.6859
 20
162.6209
 30
308.2394
 42
0
 70
32
 0
VERTEX
 8
0
 6
CONTINUOUS
 62
 10
 10
-46.2844
 20
202.785
 30
308.2394
 42
0
 70
32
 0
VERTEX
 8
0
 6
CONTINUOUS
 62
 10
 10
-46.2844
 20
202.785
 30
248.2394
 42
0
 70
32
 0
VERTEX
 8
0
 6
CONTINUOUS
 62
 10
 10
-129.6859
 20
162.6209
 30
248.2394
 42
0
 70
32
 0
SEQEND
 8
0
 62
 10
 0
POLYLINE
 8
0
 6
CONTINUOUS
 62
 10
 66
1
 10
-0
 20
0
 30
248.2394
 70
9
 0
VERTEX
 8
0
 6
CONTINUOUS
 62
 10
 10
-46.2844
 20
202.785
 30
308.2394
 42
0
 70
32
 0
VERTEX
 8
0
 6
CONTINUOUS
 62
 10
 10
46.2844
 20
202.785
 30
308.2394
 42
0
 70
32
 0
VERTEX
 8
0
 6
CONTINUOUS
 62
 10
 10
46.2844
 20
202.785
 30
248.2394
 42
0
 70
32
 0
VERTEX
 8
0
 6
CONTINUOUS
 62
 10
 10
-46.2844
 20
202.785
 30
248.2394
 42
0
 70
32
 0
SEQEND
 8
0
 62
 10
 0
POLYLINE
 8
0
 6
CONTINUOUS
 62
 10
 66
1
 10
-0
 20
0
 30
248.2394
 70
9
 0
VERTEX
 8
0
 6
CONTINUOUS
 62
 10
 10
46.2844
 20
202.785
 30
308.2394
 42
0
 70
32
 0
VERTEX
 8
0
 6
CONTINUOUS
 62
 10
 10
129.6859
 20
162.6209
 30
308.2394
 42
0
 70
32
 0
VERTEX
 8
0
 6
CONTINUOUS
 62
 10
 10
129.6859
 20
162.6209
 30
248.2394
 42
0
 70
32
 0
VERTEX
 8
0
 6
CONTINUOUS
 62
 10
 10
46.2844
 20
202.785
 30
248.2394
 42
0
 70
32
 0
SEQEND
 8
0
 62
 10
 0
POLYLINE
 8
0
 6
CONTINUOUS
 62
 10
 66
1
 10
-0
 20
0
 30
248.2394
 70
9
 0
VERTEX
 8
0
 6
CONTINUOUS
 62
 10
 10
129.6859
 20
162.6209
 30
308.2394
 42
0
 70
32
 0
VERTEX
 8
0
 6
CONTINUOUS
 62
 10
 10
187.4015
 20
90.2478
 30
308.2394
 42
0
 70
32
 0
VERTEX
 8
0
 6
CONTINUOUS
 62
 10
 10
187.4015
 20
90.2478
 30
248.2394
 42
0
 70
32
 0
VERTEX
 8
0
 6
CONTINUOUS
 62
 10
 10
129.6859
 20
162.6209
 30
248.2394
 42
0
 70
32
 0
SEQEND
 8
0
 62
 10
 0
POLYLINE
 8
0
 6
CONTINUOUS
 62
 10
 66
1
 10
-0
 20
0
 30
248.2394
 70
9
 0
VERTEX
 8
0
 6
CONTINUOUS
 62
 10
 10
187.4015
 20
90.2478
 30
308.2394
 42
0
 70
32
 0
VERTEX
 8
0
 6
CONTINUOUS
 62
 10
 10
208
 20
0
 30
308.2394
 42
0
 70
32
 0
VERTEX
 8
0
 6
CONTINUOUS
 62
 10
 10
208
 20
0
 30
248.2394
 42
0
 70
32
 0
VERTEX
 8
0
 6
CONTINUOUS
 62
 10
 10
187.4015
 20
90.2478
 30
248.2394
 42
0
 70
32
 0
SEQEND
 8
0
 62
 10
 0
POLYLINE
 8
0
 6
CONTINUOUS
 62
 10
 66
1
 10
-0
 20
0
 30
248.2394
 70
9
 0
VERTEX
 8
0
 6
CONTINUOUS
 62
 10
 10
208
 20
0
 30
308.2394
 42
0
 70
32
 0
VERTEX
 8
0
 6
CONTINUOUS
 62
 10
 10
187.4015
 20
-90.2478
 30
308.2394
 42
0
 70
32
 0
VERTEX
 8
0
 6
CONTINUOUS
 62
 10
 10
187.4015
 20
-90.2478
 30
248.2394
 42
0
 70
32
 0
VERTEX
 8
0
 6
CONTINUOUS
 62
 10
 10
208
 20
0
 30
248.2394
 42
0
 70
32
 0
SEQEND
 8
0
 62
 10
 0
POLYLINE
 8
0
 6
CONTINUOUS
 62
 10
 66
1
 10
-0
 20
0
 30
248.2394
 70
9
 0
VERTEX
 8
0
 6
CONTINUOUS
 62
 10
 10
187.4015
 20
-90.2478
 30
308.2394
 42
0
 70
32
 0
VERTEX
 8
0
 6
CONTINUOUS
 62
 10
 10
129.6859
 20
-162.6209
 30
308.2394
 42
0
 70
32
 0
VERTEX
 8
0
 6
CONTINUOUS
 62
 10
 10
129.6859
 20
-162.6209
 30
248.2394
 42
0
 70
32
 0
VERTEX
 8
0
 6
CONTINUOUS
 62
 10
 10
187.4015
 20
-90.2478
 30
248.2394
 42
0
 70
32
 0
SEQEND
 8
0
 62
 10
 0
POLYLINE
 8
0
 6
CONTINUOUS
 62
 10
 66
1
 10
-0
 20
0
 30
248.2394
 70
9
 0
VERTEX
 8
0
 6
CONTINUOUS
 62
 10
 10
129.6859
 20
-162.6209
 30
308.2394
 42
0
 70
32
 0
VERTEX
 8
0
 6
CONTINUOUS
 62
 10
 10
46.2844
 20
-202.785
 30
308.2394
 42
0
 70
32
 0
VERTEX
 8
0
 6
CONTINUOUS
 62
 10
 10
46.2844
 20
-202.785
 30
248.2394
 42
0
 70
32
 0
VERTEX
 8
0
 6
CONTINUOUS
 62
 10
 10
129.6859
 20
-162.6209
 30
248.2394
 42
0
 70
32
 0
SEQEND
 8
0
 62
 10
 0
POLYLINE
 8
0
 6
CONTINUOUS
 62
 10
 66
1
 10
-0
 20
0
 30
248.2394
 70
9
 0
VERTEX
 8
0
 6
CONTINUOUS
 62
 10
 10
46.2844
 20
-202.785
 30
308.2394
 42
0
 70
32
 0
VERTEX
 8
0
 6
CONTINUOUS
 62
 10
 10
-46.2844
 20
-202.785
 30
308.2394
 42
0
 70
32
 0
VERTEX
 8
0
 6
CONTINUOUS
 62
 10
 10
-46.2844
 20
-202.785
 30
248.2394
 42
0
 70
32
 0
VERTEX
 8
0
 6
CONTINUOUS
 62
 10
 10
46.2844
 20
-202.785
 30
248.2394
 42
0
 70
32
 0
SEQEND
 8
0
 62
 10
 0
POLYLINE
 8
0
 6
CONTINUOUS
 62
 10
 66
1
 10
-0
 20
0
 30
248.2394
 70
9
 0
VERTEX
 8
0
 6
CONTINUOUS
 62
 10
 10
-46.2844
 20
-202.785
 30
308.2394
 42
0
 70
32
 0
VERTEX
 8
0
 6
CONTINUOUS
 62
 10
 10
-129.6859
 20
-162.6209
 30
308.2394
 42
0
 70
32
 0
VERTEX
 8
0
 6
CONTINUOUS
 62
 10
 10
-129.6859
 20
-162.6209
 30
248.2394
 42
0
 70
32
 0
VERTEX
 8
0
 6
CONTINUOUS
 62
 10
 10
-46.2844
 20
-202.785
 30
248.2394
 42
0
 70
32
 0
SEQEND
 8
0
 62
 10
 0
POLYLINE
 8
0
 6
CONTINUOUS
 62
 10
 66
1
 10
-0
 20
0
 30
248.2394
 70
9
 0
VERTEX
 8
0
 6
CONTINUOUS
 62
 10
 10
-129.6859
 20
-162.6209
 30
308.2394
 42
0
 70
32
 0
VERTEX
 8
0
 6
CONTINUOUS
 62
 10
 10
-187.4015
 20
-90.2478
 30
308.2394
 42
0
 70
32
 0
VERTEX
 8
0
 6
CONTINUOUS
 62
 10
 10
-187.4015
 20
-90.2478
 30
248.2394
 42
0
 70
32
 0
VERTEX
 8
0
 6
CONTINUOUS
 62
 10
 10
-129.6859
 20
-162.6209
 30
248.2394
 42
0
 70
32
 0
SEQEND
 8
0
 62
 10
 0
POLYLINE
 8
0
 6
CONTINUOUS
 62
 10
 66
1
 10
-0
 20
0
 30
248.2394
 70
9
 0
VERTEX
 8
0
 6
CONTINUOUS
 62
 10
 10
-187.4015
 20
-90.2478
 30
308.2394
 42
0
 70
32
 0
VERTEX
 8
0
 6
CONTINUOUS
 62
 10
 10
-208
 20
0
 30
308.2394
 42
0
 70
32
 0
VERTEX
 8
0
 6
CONTINUOUS
 62
 10
 10
-208
 20
0
 30
248.2394
 42
0
 70
32
 0
VERTEX
 8
0
 6
CONTINUOUS
 62
 10
 10
-187.4015
 20
-90.2478
 30
248.2394
 42
0
 70
32
 0
SEQEND
 8
0
 62
 10
 0
POLYLINE
 8
0
 6
CONTINUOUS
 62
 10
 66
1
 10
-0
 20
0
 30
248.2394
 70
9
 0
VERTEX
 8
0
 6
CONTINUOUS
 62
 10
 10
-208
 20
0
 30
308.2394
 42
0
 70
32
 0
VERTEX
 8
0
 6
CONTINUOUS
 62
 10
 10
-187.4015
 20
90.2478
 30
308.2394
 42
0
 70
32
 0
VERTEX
 8
0
 6
CONTINUOUS
 62
 10
 10
-187.4015
 20
90.2478
 30
248.2394
 42
0
 70
32
 0
VERTEX
 8
0
 6
CONTINUOUS
 62
 10
 10
-208
 20
0
 30
248.2394
 42
0
 70
32
 0
SEQEND
 8
0
 62
 10
 0
POLYLINE
 8
0
 6
CONTINUOUS
 62
 10
 66
1
 10
-0
 20
0
 30
248.2394
 70
9
 0
VERTEX
 8
0
 6
CONTINUOUS
 62
 10
 10
-187.4015
 20
90.2478
 30
308.2394
 42
0
 70
32
 0
VERTEX
 8
0
 6
CONTINUOUS
 62
 10
 10
-129.6859
 20
162.6209
 30
308.2394
 42
0
 70
32
 0
VERTEX
 8
0
 6
CONTINUOUS
 62
 10
 10
-129.6859
 20
162.6209
 30
248.2394
 42
0
 70
32
 0
VERTEX
 8
0
 6
CONTINUOUS
 62
 10
 10
-187.4015
 20
90.2478
 30
248.2394
 42
0
 70
32
 0
SEQEND
 8
0
 62
 10
 0
POLYLINE
 8
0
 6
CONTINUOUS
 62
 10
 66
1
 10
-110.2646
 20
78.8395
 30
816.0979
 70
9
 0
VERTEX
 8
0
 6
CONTINUOUS
 62
 10
 10
-107.1467
 20
78.8395
 30
816.0979
 42
0
 70
32
 0
VERTEX
 8
0
 6
CONTINUOUS
 62
 10
 10
92.3949
 20
78.8395
 30
831.0684
 42
0
 70
32
 0
VERTEX
 8
0
 6
CONTINUOUS
 62
 10
 10
123.0423
 20
78.8395
 30
768.5036
 42
0
 70
32
 0
VERTEX
 8
0
 6
CONTINUOUS
 62
 10
 10
115.9451
 20
78.8395
 30
699.1982
 42
0
 70
32
 0
VERTEX
 8
0
 6
CONTINUOUS
 62
 10
 10
73.2529
 20
78.8395
 30
644.1438
 42
0
 70
32
 0
VERTEX
 8
0
 6
CONTINUOUS
 62
 10
 10
7.8966
 20
78.8395
 30
620.0157
 42
0
 70
32
 0
VERTEX
 8
0
 6
CONTINUOUS
 62
 10
 10
-60.3282
 20
78.8395
 30
634.122
 42
0
 70
32
 0
VERTEX
 8
0
 6
CONTINUOUS
 62
 10
 10
-110.7571
 20
78.8395
 30
682.19
 42
0
 70
32
 0
VERTEX
 8
0
 6
CONTINUOUS
 62
 10
 10
-128.1159
 20
78.8395
 30
749.6606
 42
0
 70
32
 0
SEQEND
 8
0
 62
 10
 0
POLYLINE
 8
0
 6
CONTINUOUS
 62
 10
 66
1
 10
-110.2646
 20
78.8395
 30
816.0979
 70
9
 0
VERTEX
 8
0
 6
CONTINUOUS
 62
 10
 10
123.0423
 20
-71.1605
 30
768.5036
 42
0
 70
32
 0
VERTEX
 8
0
 6
CONTINUOUS
 62
 10
 10
92.3949
 20
-71.1605
 30
831.0684
 42
0
 70
32
 0
VERTEX
 8
0
 6
CONTINUOUS
 62
 10
 10
-107.1467
 20
-71.1605
 30
816.0979
 42
0
 70
32
 0
VERTEX
 8
0
 6
CONTINUOUS
 62
 10
 10
-128.1159
 20
-71.1605
 30
749.6606
 42
0
 70
32
 0
VERTEX
 8
0
 6
CONTINUOUS
 62
 10
 10
-110.7571
 20
-71.1605
 30
682.19
 42
0
 70
32
 0
VERTEX
 8
0
 6
CONTINUOUS
 62
 10
 10
-60.3282
 20
-71.1605
 30
634.122
 42
0
 70
32
 0
VERTEX
 8
0
 6
CONTINUOUS
 62
 10
 10
7.8966
 20
-71.1605
 30
620.0157
 42
0
 70
32
 0
VERTEX
 8
0
 6
CONTINUOUS
 62
 10
 10
73.2529
 20
-71.1605
 30
644.1438
 42
0
 70
32
 0
VERTEX
 8
0
 6
CONTINUOUS
 62
 10
 10
115.9451
 20
-71.1605
 30
699.1982
 42
0
 70
32
 0
SEQEND
 8
0
 62
 10
 0
POLYLINE
 8
0
 6
CONTINUOUS
 62
 10
 66
1
 10
-110.2646
 20
78.8395
 30
816.0979
 70
9
 0
VERTEX
 8
0
 6
CONTINUOUS
 62
 10
 10
73.2529
 20
-71.1605
 30
644.1438
 42
0
 70
32
 0
VERTEX
 8
0
 6
CONTINUOUS
 62
 10
 10
7.8966
 20
-71.1605
 30
620.0157
 42
0
 70
32
 0
VERTEX
 8
0
 6
CONTINUOUS
 62
 10
 10
7.8966
 20
78.8395
 30
620.0157
 42
0
 70
32
 0
VERTEX
 8
0
 6
CONTINUOUS
 62
 10
 10
73.2529
 20
78.8395
 30
644.1438
 42
0
 70
32
 0
SEQEND
 8
0
 62
 10
 0
POLYLINE
 8
0
 6
CONTINUOUS
 62
 10
 66
1
 10
-110.2646
 20
78.8395
 30
816.0979
 70
9
 0
VERTEX
 8
0
 6
CONTINUOUS
 62
 10
 10
7.8966
 20
-71.1605
 30
620.0157
 42
0
 70
32
 0
VERTEX
 8
0
 6
CONTINUOUS
 62
 10
 10
-60.3282
 20
-71.1605
 30
634.122
 42
0
 70
32
 0
VERTEX
 8
0
 6
CONTINUOUS
 62
 10
 10
-60.3282
 20
78.8395
 30
634.122
 42
0
 70
32
 0
VERTEX
 8
0
 6
CONTINUOUS
 62
 10
 10
7.8966
 20
78.8395
 30
620.0157
 42
0
 70
32
 0
SEQEND
 8
0
 62
 10
 0
POLYLINE
 8
0
 6
CONTINUOUS
 62
 10
 66
1
 10
-110.2646
 20
78.8395
 30
816.0979
 70
9
 0
VERTEX
 8
0
 6
CONTINUOUS
 62
 10
 10
-63.7621
 20
-31.3367
 30
637.3951
 42
0
 70
32
 0
VERTEX
 8
0
 6
CONTINUOUS
 62
 10
 10
-60.3282
 20
-71.1605
 30
634.122
 42
0
 70
32
 0
VERTEX
 8
0
 6
CONTINUOUS
 62
 10
 10
-110.7571
 20
-71.1605
 30
682.19
 42
0
 70
32
 0
VERTEX
 8
0
 6
CONTINUOUS
 62
 10
 10
-110.7571
 20
-31.3367
 30
682.19
 42
0
 70
32
 0
SEQEND
 8
0
 62
 10
 0
POLYLINE
 8
0
 6
CONTINUOUS
 62
 10
 66
1
 10
-110.2646
 20
78.8395
 30
816.0979
 70
9
 0
VERTEX
 8
0
 6
CONTINUOUS
 62
 10
 10
-110.7571
 20
-71.1605
 30
682.19
 42
0
 70
32
 0
VERTEX
 8
0
 6
CONTINUOUS
 62
 10
 10
-128.1159
 20
-71.1605
 30
749.6606
 42
0
 70
32
 0
VERTEX
 8
0
 6
CONTINUOUS
 62
 10
 10
-128.1159
 20
-31.3367
 30
749.6606
 42
0
 70
32
 0
VERTEX
 8
0
 6
CONTINUOUS
 62
 10
 10
-110.7571
 20
-31.3367
 30
682.19
 42
0
 70
32
 0
SEQEND
 8
0
 62
 10
 0
POLYLINE
 8
0
 6
CONTINUOUS
 62
 10
 66
1
 10
-110.2646
 20
78.8395
 30
816.0979
 70
9
 0
VERTEX
 8
0
 6
CONTINUOUS
 62
 10
 10
-128.1159
 20
28.6633
 30
749.6606
 42
0
 70
32
 0
VERTEX
 8
0
 6
CONTINUOUS
 62
 10
 10
-128.1159
 20
78.8395
 30
749.6606
 42
0
 70
32
 0
VERTEX
 8
0
 6
CONTINUOUS
 62
 10
 10
-110.7571
 20
78.8395
 30
682.19
 42
0
 70
32
 0
VERTEX
 8
0
 6
CONTINUOUS
 62
 10
 10
-110.7571
 20
28.6633
 30
682.19
 42
0
 70
32
 0
SEQEND
 8
0
 62
 10
 0
POLYLINE
 8
0
 6
CONTINUOUS
 62
 10
 66
1
 10
-110.2646
 20
78.8395
 30
816.0979
 70
9
 0
VERTEX
 8
0
 6
CONTINUOUS
 62
 10
 10
-128.1159
 20
-71.1605
 30
749.6606
 42
0
 70
32
 0
VERTEX
 8
0
 6
CONTINUOUS
 62
 10
 10
-107.1467
 20
-71.1605
 30
816.0979
 42
0
 70
32
 0
VERTEX
 8
0
 6
CONTINUOUS
 62
 10
 10
-107.1467
 20
-31.3367
 30
816.0979
 42
0
 70
32
 0
VERTEX
 8
0
 6
CONTINUOUS
 62
 10
 10
-128.1159
 20
-31.3367
 30
749.6606
 42
0
 70
32
 0
SEQEND
 8
0
 62
 10
 0
POLYLINE
 8
0
 6
CONTINUOUS
 62
 10
 66
1
 10
-110.2646
 20
78.8395
 30
816.0979
 70
9
 0
VERTEX
 8
0
 6
CONTINUOUS
 62
 10
 10
-107.1467
 20
28.6633
 30
816.0979
 42
0
 70
32
 0
VERTEX
 8
0
 6
CONTINUOUS
 62
 10
 10
-107.1467
 20
78.8395
 30
816.0979
 42
0
 70
32
 0
VERTEX
 8
0
 6
CONTINUOUS
 62
 10
 10
-128.1159
 20
78.8395
 30
749.6606
 42
0
 70
32
 0
VERTEX
 8
0
 6
CONTINUOUS
 62
 10
 10
-128.1159
 20
28.6633
 30
749.6606
 42
0
 70
32
 0
SEQEND
 8
0
 62
 10
 0
POLYLINE
 8
0
 6
CONTINUOUS
 62
 10
 66
1
 10
-110.2646
 20
78.8395
 30
816.0979
 70
9
 0
VERTEX
 8
0
 6
CONTINUOUS
 62
 10
 10
-107.1467
 20
-71.1605
 30
816.0979
 42
0
 70
32
 0
VERTEX
 8
0
 6
CONTINUOUS
 62
 10
 10
-94.6754
 20
-71.1605
 30
1244.2541
 42
0
 70
32
 0
VERTEX
 8
0
 6
CONTINUOUS
 62
 10
 10
-94.6754
 20
-31.3367
 30
1244.2541
 42
0
 70
32
 0
VERTEX
 8
0
 6
CONTINUOUS
 62
 10
 10
-107.1467
 20
-31.3367
 30
816.0979
 42
0
 70
32
 0
SEQEND
 8
0
 62
 10
 0
POLYLINE
 8
0
 6
CONTINUOUS
 62
 10
 66
1
 10
-110.2646
 20
78.8395
 30
816.0979
 70
9
 0
VERTEX
 8
0
 6
CONTINUOUS
 62
 10
 10
-94.6754
 20
28.6633
 30
1244.2541
 42
0
 70
32
 0
VERTEX
 8
0
 6
CONTINUOUS
 62
 10
 10
-94.6754
 20
78.8395
 30
1244.2541
 42
0
 70
32
 0
VERTEX
 8
0
 6
CONTINUOUS
 62
 10
 10
-107.1467
 20
78.8395
 30
816.0979
 42
0
 70
32
 0
VERTEX
 8
0
 6
CONTINUOUS
 62
 10
 10
-107.1467
 20
28.6633
 30
816.0979
 42
0
 70
32
 0
SEQEND
 8
0
 62
 10
 0
POLYLINE
 8
0
 6
CONTINUOUS
 62
 10
 66
1
 10
-110.2646
 20
78.8395
 30
816.0979
 70
9
 0
VERTEX
 8
0
 6
CONTINUOUS
 62
 10
 10
-63.7621
 20
28.6633
 30
1342.2193
 42
0
 70
32
 0
VERTEX
 8
0
 6
CONTINUOUS
 62
 10
 10
-63.497
 20
78.8395
 30
1343.0594
 42
0
 70
32
 0
VERTEX
 8
0
 6
CONTINUOUS
 62
 10
 10
-94.6754
 20
78.8395
 30
1244.2541
 42
0
 70
32
 0
VERTEX
 8
0
 6
CONTINUOUS
 62
 10
 10
-94.6754
 20
28.6633
 30
1244.2541
 42
0
 70
32
 0
SEQEND
 8
0
 62
 10
 0
POLYLINE
 8
0
 6
CONTINUOUS
 62
 10
 66
1
 10
-110.2646
 20
78.8395
 30
816.0979
 70
9
 0
VERTEX
 8
0
 6
CONTINUOUS
 62
 10
 10
-63.497
 20
-71.1605
 30
1343.0594
 42
0
 70
32
 0
VERTEX
 8
0
 6
CONTINUOUS
 62
 10
 10
-47.9078
 20
-71.1605
 30
1498.7526
 42
0
 70
32
 0
VERTEX
 8
0
 6
CONTINUOUS
 62
 10
 10
-47.9078
 20
78.8395
 30
1498.7526
 42
0
 70
32
 0
VERTEX
 8
0
 6
CONTINUOUS
 62
 10
 10
-63.497
 20
78.8395
 30
1343.0594
 42
0
 70
32
 0
SEQEND
 8
0
 62
 10
 0
POLYLINE
 8
0
 6
CONTINUOUS
 62
 10
 66
1
 10
-110.2646
 20
78.8395
 30
816.0979
 70
9
 0
VERTEX
 8
0
 6
CONTINUOUS
 62
 10
 10
-47.9078
 20
-71.1605
 30
1498.7526
 42
0
 70
32
 0
VERTEX
 8
0
 6
CONTINUOUS
 62
 10
 10
36.2738
 20
-71.1605
 30
1498.7526
 42
0
 70
32
 0
VERTEX
 8
0
 6
CONTINUOUS
 62
 10
 10
36.2738
 20
78.8395
 30
1498.7526
 42
0
 70
32
 0
VERTEX
 8
0
 6
CONTINUOUS
 62
 10
 10
-47.9078
 20
78.8395
 30
1498.7526
 42
0
 70
32
 0
SEQEND
 8
0
 62
 10
 0
POLYLINE
 8
0
 6
CONTINUOUS
 62
 10
 66
1
 10
-110.2646
 20
78.8395
 30
816.0979
 70
9
 0
VERTEX
 8
0
 6
CONTINUOUS
 62
 10
 10
36.2738
 20
-71.1605
 30
1498.7526
 42
0
 70
32
 0
VERTEX
 8
0
 6
CONTINUOUS
 62
 10
 10
92.3949
 20
-71.1605
 30
831.0684
 42
0
 70
32
 0
VERTEX
 8
0
 6
CONTINUOUS
 62
 10
 10
92.3949
 20
78.8395
 30
831.0684
 42
0
 70
32
 0
VERTEX
 8
0
 6
CONTINUOUS
 62
 10
 10
36.2738
 20
78.8395
 30
1498.7526
 42
0
 70
32
 0
SEQEND
 8
0
 62
 10
 0
POLYLINE
 8
0
 6
CONTINUOUS
 62
 10
 66
1
 10
-110.2646
 20
78.8395
 30
816.0979
 70
9
 0
VERTEX
 8
0
 6
CONTINUOUS
 62
 10
 10
92.3949
 20
-71.1605
 30
831.0684
 42
0
 70
32
 0
VERTEX
 8
0
 6
CONTINUOUS
 62
 10
 10
123.0423
 20
-71.1605
 30
768.5036
 42
0
 70
32
 0
VERTEX
 8
0
 6
CONTINUOUS
 62
 10
 10
123.0423
 20
78.8395
 30
768.5036
 42
0
 70
32
 0
VERTEX
 8
0
 6
CONTINUOUS
 62
 10
 10
92.3949
 20
78.8395
 30
831.0684
 42
0
 70
32
 0
SEQEND
 8
0
 62
 10
 0
POLYLINE
 8
0
 6
CONTINUOUS
 62
 10
 66
1
 10
-110.2646
 20
78.8395
 30
816.0979
 70
9
 0
VERTEX
 8
0
 6
CONTINUOUS
 62
 10
 10
123.0423
 20
-71.1605
 30
768.5036
 42
0
 70
32
 0
VERTEX
 8
0
 6
CONTINUOUS
 62
 10
 10
115.9451
 20
-71.1605
 30
699.1982
 42
0
 70
32
 0
VERTEX
 8
0
 6
CONTINUOUS
 62
 10
 10
115.9451
 20
78.8395
 30
699.1982
 42
0
 70
32
 0
VERTEX
 8
0
 6
CONTINUOUS
 62
 10
 10
123.0423
 20
78.8395
 30
768.5036
 42
0
 70
32
 0
SEQEND
 8
0
 62
 10
 0
POLYLINE
 8
0
 6
CONTINUOUS
 62
 10
 66
1
 10
-110.2646
 20
78.8395
 30
816.0979
 70
9
 0
VERTEX
 8
0
 6
CONTINUOUS
 62
 10
 10
115.9451
 20
-71.1605
 30
699.1982
 42
0
 70
32
 0
VERTEX
 8
0
 6
CONTINUOUS
 62
 10
 10
73.2529
 20
-71.1605
 30
644.1438
 42
0
 70
32
 0
VERTEX
 8
0
 6
CONTINUOUS
 62
 10
 10
73.2529
 20
78.8395
 30
644.1438
 42
0
 70
32
 0
VERTEX
 8
0
 6
CONTINUOUS
 62
 10
 10
115.9451
 20
78.8395
 30
699.1982
 42
0
 70
32
 0
SEQEND
 8
0
 62
 10
 0
POLYLINE
 8
0
 6
CONTINUOUS
 62
 10
 66
1
 10
-110.2646
 20
78.8395
 30
816.0979
 70
9
 0
VERTEX
 8
0
 6
CONTINUOUS
 62
 10
 10
-107.1467
 20
78.8395
 30
816.0979
 42
0
 70
32
 0
VERTEX
 8
0
 6
CONTINUOUS
 62
 10
 10
-94.6754
 20
78.8395
 30
1244.2541
 42
0
 70
32
 0
VERTEX
 8
0
 6
CONTINUOUS
 62
 10
 10
-63.497
 20
78.8395
 30
1343.0594
 42
0
 70
32
 0
SEQEND
 8
0
 62
 10
 0
POLYLINE
 8
0
 6
CONTINUOUS
 62
 10
 66
1
 10
-110.2646
 20
78.8395
 30
816.0979
 70
9
 0
VERTEX
 8
0
 6
CONTINUOUS
 62
 10
 10
-107.1467
 20
78.8395
 30
816.0979
 42
0
 70
32
 0
VERTEX
 8
0
 6
CONTINUOUS
 62
 10
 10
-63.497
 20
78.8395
 30
1343.0594
 42
0
 70
32
 0
VERTEX
 8
0
 6
CONTINUOUS
 62
 10
 10
-47.9078
 20
78.8395
 30
1498.7526
 42
0
 70
32
 0
SEQEND
 8
0
 62
 10
 0
POLYLINE
 8
0
 6
CONTINUOUS
 62
 10
 66
1
 10
-110.2646
 20
78.8395
 30
816.0979
 70
9
 0
VERTEX
 8
0
 6
CONTINUOUS
 62
 10
 10
-107.1467
 20
78.8395
 30
816.0979
 42
0
 70
32
 0
VERTEX
 8
0
 6
CONTINUOUS
 62
 10
 10
-47.9078
 20
78.8395
 30
1498.7526
 42
0
 70
32
 0
VERTEX
 8
0
 6
CONTINUOUS
 62
 10
 10
36.2738
 20
78.8395
 30
1498.7526
 42
0
 70
32
 0
SEQEND
 8
0
 62
 10
 0
POLYLINE
 8
0
 6
CONTINUOUS
 62
 10
 66
1
 10
-110.2646
 20
78.8395
 30
816.0979
 70
9
 0
VERTEX
 8
0
 6
CONTINUOUS
 62
 10
 10
-107.1467
 20
78.8395
 30
816.0979
 42
0
 70
32
 0
VERTEX
 8
0
 6
CONTINUOUS
 62
 10
 10
36.2738
 20
78.8395
 30
1498.7526
 42
0
 70
32
 0
VERTEX
 8
0
 6
CONTINUOUS
 62
 10
 10
92.3949
 20
78.8395
 30
831.0684
 42
0
 70
32
 0
SEQEND
 8
0
 62
 10
 0
POLYLINE
 8
0
 6
CONTINUOUS
 62
 10
 66
1
 10
-110.2646
 20
78.8395
 30
816.0979
 70
9
 0
VERTEX
 8
0
 6
CONTINUOUS
 62
 10
 10
92.3949
 20
-71.1605
 30
831.0684
 42
0
 70
32
 0
VERTEX
 8
0
 6
CONTINUOUS
 62
 10
 10
36.2738
 20
-71.1605
 30
1498.7526
 42
0
 70
32
 0
VERTEX
 8
0
 6
CONTINUOUS
 62
 10
 10
-47.9078
 20
-71.1605
 30
1498.7526
 42
0
 70
32
 0
SEQEND
 8
0
 62
 10
 0
POLYLINE
 8
0
 6
CONTINUOUS
 62
 10
 66
1
 10
-110.2646
 20
78.8395
 30
816.0979
 70
9
 0
VERTEX
 8
0
 6
CONTINUOUS
 62
 10
 10
92.3949
 20
-71.1605
 30
831.0684
 42
0
 70
32
 0
VERTEX
 8
0
 6
CONTINUOUS
 62
 10
 10
-47.9078
 20
-71.1605
 30
1498.7526
 42
0
 70
32
 0
VERTEX
 8
0
 6
CONTINUOUS
 62
 10
 10
-63.497
 20
-71.1605
 30
1343.0594
 42
0
 70
32
 0
SEQEND
 8
0
 62
 10
 0
POLYLINE
 8
0
 6
CONTINUOUS
 62
 10
 66
1
 10
-110.2646
 20
78.8395
 30
816.0979
 70
9
 0
VERTEX
 8
0
 6
CONTINUOUS
 62
 10
 10
92.3949
 20
-71.1605
 30
831.0684
 42
0
 70
32
 0
VERTEX
 8
0
 6
CONTINUOUS
 62
 10
 10
-63.497
 20
-71.1605
 30
1343.0594
 42
0
 70
32
 0
VERTEX
 8
0
 6
CONTINUOUS
 62
 10
 10
-94.6754
 20
-71.1605
 30
1244.2541
 42
0
 70
32
 0
SEQEND
 8
0
 62
 10
 0
POLYLINE
 8
0
 6
CONTINUOUS
 62
 10
 66
1
 10
-110.2646
 20
78.8395
 30
816.0979
 70
9
 0
VERTEX
 8
0
 6
CONTINUOUS
 62
 10
 10
92.3949
 20
-71.1605
 30
831.0684
 42
0
 70
32
 0
VERTEX
 8
0
 6
CONTINUOUS
 62
 10
 10
-94.6754
 20
-71.1605
 30
1244.2541
 42
0
 70
32
 0
VERTEX
 8
0
 6
CONTINUOUS
 62
 10
 10
-107.1467
 20
-71.1605
 30
816.0979
 42
0
 70
32
 0
SEQEND
 8
0
 62
 10
 0
POLYLINE
 8
0
 6
CONTINUOUS
 62
 10
 66
1
 10
-110.2646
 20
78.8395
 30
816.0979
 70
9
 0
VERTEX
 8
0
 6
CONTINUOUS
 62
 10
 10
-63.7621
 20
28.6633
 30
637.3951
 42
0
 70
32
 0
VERTEX
 8
0
 6
CONTINUOUS
 62
 10
 10
-63.7621
 20
-31.3367
 30
637.3951
 42
0
 70
32
 0
VERTEX
 8
0
 6
CONTINUOUS
 62
 10
 10
-63.7621
 20
-31.3367
 30
1342.2193
 42
0
 70
32
 0
VERTEX
 8
0
 6
CONTINUOUS
 62
 10
 10
-63.7621
 20
28.6633
 30
1342.2193
 42
0
 70
32
 0
SEQEND
 8
0
 62
 10
 0
POLYLINE
 8
0
 6
CONTINUOUS
 62
 10
 66
1
 10
-110.2646
 20
78.8395
 30
816.0979
 70
9
 0
VERTEX
 8
0
 6
CONTINUOUS
 62
 10
 10
-107.1467
 20
28.6633
 30
816.0979
 42
0
 70
32
 0
VERTEX
 8
0
 6
CONTINUOUS
 62
 10
 10
-63.7621
 20
28.6633
 30
637.3951
 42
0
 70
32
 0
VERTEX
 8
0
 6
CONTINUOUS
 62
 10
 10
-63.7621
 20
28.6633
 30
1342.2193
 42
0
 70
32
 0
VERTEX
 8
0
 6
CONTINUOUS
 62
 10
 10
-94.6754
 20
28.6633
 30
1244.2541
 42
0
 70
32
 0
SEQEND
 8
0
 62
 10
 0
POLYLINE
 8
0
 6
CONTINUOUS
 62
 10
 66
1
 10
-110.2646
 20
78.8395
 30
816.0979
 70
9
 0
VERTEX
 8
0
 6
CONTINUOUS
 62
 10
 10
-128.1159
 20
-31.3367
 30
749.6606
 42
0
 70
32
 0
VERTEX
 8
0
 6
CONTINUOUS
 62
 10
 10
-107.1467
 20
-31.3367
 30
816.0979
 42
0
 70
32
 0
VERTEX
 8
0
 6
CONTINUOUS
 62
 10
 10
-63.7621
 20
-31.3367
 30
637.3951
 42
0
 70
32
 0
VERTEX
 8
0
 6
CONTINUOUS
 62
 10
 10
-110.7571
 20
-31.3367
 30
682.19
 42
0
 70
32
 0
SEQEND
 8
0
 62
 10
 0
POLYLINE
 8
0
 6
CONTINUOUS
 62
 10
 66
1
 10
-110.2646
 20
78.8395
 30
816.0979
 70
9
 0
VERTEX
 8
0
 6
CONTINUOUS
 62
 10
 10
-63.7621
 20
28.6633
 30
637.3951
 42
0
 70
32
 0
VERTEX
 8
0
 6
CONTINUOUS
 62
 10
 10
-60.3282
 20
78.8395
 30
634.122
 42
0
 70
32
 0
VERTEX
 8
0
 6
CONTINUOUS
 62
 10
 10
-60.3282
 20
-71.1605
 30
634.122
 42
0
 70
32
 0
VERTEX
 8
0
 6
CONTINUOUS
 62
 10
 10
-63.7621
 20
-31.3367
 30
637.3951
 42
0
 70
32
 0
SEQEND
 8
0
 62
 10
 0
POLYLINE
 8
0
 6
CONTINUOUS
 62
 10
 66
1
 10
-110.2646
 20
78.8395
 30
816.0979
 70
9
 0
VERTEX
 8
0
 6
CONTINUOUS
 62
 10
 10
-63.497
 20
-71.1605
 30
1343.0594
 42
0
 70
32
 0
VERTEX
 8
0
 6
CONTINUOUS
 62
 10
 10
-63.497
 20
78.8395
 30
1343.0594
 42
0
 70
32
 0
VERTEX
 8
0
 6
CONTINUOUS
 62
 10
 10
-63.7621
 20
28.6633
 30
1342.2193
 42
0
 70
32
 0
VERTEX
 8
0
 6
CONTINUOUS
 62
 10
 10
-63.7621
 20
-31.3367
 30
1342.2193
 42
0
 70
32
 0
SEQEND
 8
0
 62
 10
 0
POLYLINE
 8
0
 6
CONTINUOUS
 62
 10
 66
1
 10
-110.2646
 20
78.8395
 30
816.0979
 70
9
 0
VERTEX
 8
0
 6
CONTINUOUS
 62
 10
 10
-63.7621
 20
28.6633
 30
637.3951
 42
0
 70
32
 0
VERTEX
 8
0
 6
CONTINUOUS
 62
 10
 10
-107.1467
 20
28.6633
 30
816.0979
 42
0
 70
32
 0
VERTEX
 8
0
 6
CONTINUOUS
 62
 10
 10
-128.1159
 20
28.6633
 30
749.6606
 42
0
 70
32
 0
VERTEX
 8
0
 6
CONTINUOUS
 62
 10
 10
-110.7571
 20
28.6633
 30
682.19
 42
0
 70
32
 0
SEQEND
 8
0
 62
 10
 0
POLYLINE
 8
0
 6
CONTINUOUS
 62
 10
 66
1
 10
-110.2646
 20
78.8395
 30
816.0979
 70
9
 0
VERTEX
 8
0
 6
CONTINUOUS
 62
 10
 10
-63.7621
 20
-31.3367
 30
1342.2193
 42
0
 70
32
 0
VERTEX
 8
0
 6
CONTINUOUS
 62
 10
 10
-63.7621
 20
-31.3367
 30
637.3951
 42
0
 70
32
 0
VERTEX
 8
0
 6
CONTINUOUS
 62
 10
 10
-107.1467
 20
-31.3367
 30
816.0979
 42
0
 70
32
 0
VERTEX
 8
0
 6
CONTINUOUS
 62
 10
 10
-94.6754
 20
-31.3367
 30
1244.2541
 42
0
 70
32
 0
SEQEND
 8
0
 62
 10
 0
POLYLINE
 8
0
 6
CONTINUOUS
 62
 10
 66
1
 10
-110.2646
 20
78.8395
 30
816.0979
 70
9
 0
VERTEX
 8
0
 6
CONTINUOUS
 62
 10
 10
-110.7571
 20
78.8395
 30
682.19
 42
0
 70
32
 0
VERTEX
 8
0
 6
CONTINUOUS
 62
 10
 10
-60.3282
 20
78.8395
 30
634.122
 42
0
 70
32
 0
VERTEX
 8
0
 6
CONTINUOUS
 62
 10
 10
-63.7621
 20
28.6633
 30
637.3951
 42
0
 70
32
 0
VERTEX
 8
0
 6
CONTINUOUS
 62
 10
 10
-110.7571
 20
28.6633
 30
682.19
 42
0
 70
32
 0
SEQEND
 8
0
 62
 10
 0
POLYLINE
 8
0
 6
CONTINUOUS
 62
 10
 66
1
 10
-110.2646
 20
78.8395
 30
816.0979
 70
9
 0
VERTEX
 8
0
 6
CONTINUOUS
 62
 10
 10
-94.6754
 20
-71.1605
 30
1244.2541
 42
0
 70
32
 0
VERTEX
 8
0
 6
CONTINUOUS
 62
 10
 10
-63.497
 20
-71.1605
 30
1343.0594
 42
0
 70
32
 0
VERTEX
 8
0
 6
CONTINUOUS
 62
 10
 10
-63.7621
 20
-31.3367
 30
1342.2193
 42
0
 70
32
 0
VERTEX
 8
0
 6
CONTINUOUS
 62
 10
 10
-94.6754
 20
-31.3367
 30
1244.2541
 42
0
 70
32
 0
SEQEND
 8
0
 62
 10
 0
POLYLINE
 8
0
 6
CONTINUOUS
 62
 10
 66
1
 10
-897.6364
 20
89.3818
 30
523.1595
 70
9
 0
VERTEX
 8
0
 6
CONTINUOUS
 62
 10
 10
-261.587
 20
89.3818
 30
1620.4564
 42
0
 70
32
 0
VERTEX
 8
0
 6
CONTINUOUS
 62
 10
 10
-261.587
 20
89.3818
 30
1657.0323
 42
0
 70
32
 0
VERTEX
 8
0
 6
CONTINUOUS
 62
 10
 10
-229.9602
 20
89.3818
 30
1694.1531
 42
0
 70
32
 0
VERTEX
 8
0
 6
CONTINUOUS
 62
 10
 10
170.6455
 20
89.3818
 30
1694.1531
 42
0
 70
32
 0
VERTEX
 8
0
 6
CONTINUOUS
 62
 10
 10
198.7582
 20
89.3818
 30
1653.6577
 42
0
 70
32
 0
VERTEX
 8
0
 6
CONTINUOUS
 62
 10
 10
198.7582
 20
89.3818
 30
1507.8782
 42
0
 70
32
 0
SEQEND
 8
0
 62
 10
 0
POLYLINE
 8
0
 6
CONTINUOUS
 62
 10
 66
1
 10
-897.6364
 20
89.3818
 30
523.1595
 70
9
 0
VERTEX
 8
0
 6
CONTINUOUS
 62
 10
 10
-229.9602
 20
-80.6182
 30
1694.1531
 42
0
 70
32
 0
VERTEX
 8
0
 6
CONTINUOUS
 62
 10
 10
-261.587
 20
-80.6182
 30
1657.0323
 42
0
 70
32
 0
VERTEX
 8
0
 6
CONTINUOUS
 62
 10
 10
-261.587
 20
-80.6182
 30
1620.4564
 42
0
 70
32
 0
VERTEX
 8
0
 6
CONTINUOUS
 62
 10
 10
198.7582
 20
-80.6182
 30
1507.8782
 42
0
 70
32
 0
VERTEX
 8
0
 6
CONTINUOUS
 62
 10
 10
198.7582
 20
-80.6182
 30
1653.6577
 42
0
 70
32
 0
VERTEX
 8
0
 6
CONTINUOUS
 62
 10
 10
170.6455
 20
-80.6182
 30
1694.1531
 42
0
 70
32
 0
SEQEND
 8
0
 62
 10
 0
POLYLINE
 8
0
 6
CONTINUOUS
 62
 10
 66
1
 10
-897.6364
 20
89.3818
 30
523.1595
 70
9
 0
VERTEX
 8
0
 6
CONTINUOUS
 62
 10
 10
-261.587
 20
-80.6182
 30
1620.4564
 42
0
 70
32
 0
VERTEX
 8
0
 6
CONTINUOUS
 62
 10
 10
-261.587
 20
-80.6182
 30
1657.0323
 42
0
 70
32
 0
VERTEX
 8
0
 6
CONTINUOUS
 62
 10
 10
-261.587
 20
89.3818
 30
1657.0323
 42
0
 70
32
 0
VERTEX
 8
0
 6
CONTINUOUS
 62
 10
 10
-261.587
 20
89.3818
 30
1620.4564
 42
0
 70
32
 0
SEQEND
 8
0
 62
 10
 0
POLYLINE
 8
0
 6
CONTINUOUS
 62
 10
 66
1
 10
-897.6364
 20
89.3818
 30
523.1595
 70
9
 0
VERTEX
 8
0
 6
CONTINUOUS
 62
 10
 10
-261.587
 20
-80.6182
 30
1657.0323
 42
0
 70
32
 0
VERTEX
 8
0
 6
CONTINUOUS
 62
 10
 10
-229.9602
 20
-80.6182
 30
1694.1531
 42
0
 70
32
 0
VERTEX
 8
0
 6
CONTINUOUS
 62
 10
 10
-229.9602
 20
89.3818
 30
1694.1531
 42
0
 70
32
 0
VERTEX
 8
0
 6
CONTINUOUS
 62
 10
 10
-261.587
 20
89.3818
 30
1657.0323
 42
0
 70
32
 0
SEQEND
 8
0
 62
 10
 0
POLYLINE
 8
0
 6
CONTINUOUS
 62
 10
 66
1
 10
-897.6364
 20
89.3818
 30
523.1595
 70
9
 0
VERTEX
 8
0
 6
CONTINUOUS
 62
 10
 10
-229.9602
 20
-80.6182
 30
1694.1531
 42
0
 70
32
 0
VERTEX
 8
0
 6
CONTINUOUS
 62
 10
 10
170.6455
 20
-80.6182
 30
1694.1531
 42
0
 70
32
 0
VERTEX
 8
0
 6
CONTINUOUS
 62
 10
 10
170.6455
 20
89.3818
 30
1694.1531
 42
0
 70
32
 0
VERTEX
 8
0
 6
CONTINUOUS
 62
 10
 10
-229.9602
 20
89.3818
 30
1694.1531
 42
0
 70
32
 0
SEQEND
 8
0
 62
 10
 0
POLYLINE
 8
0
 6
CONTINUOUS
 62
 10
 66
1
 10
-897.6364
 20
89.3818
 30
523.1595
 70
9
 0
VERTEX
 8
0
 6
CONTINUOUS
 62
 10
 10
170.6455
 20
-80.6182
 30
1694.1531
 42
0
 70
32
 0
VERTEX
 8
0
 6
CONTINUOUS
 62
 10
 10
198.7582
 20
-80.6182
 30
1653.6577
 42
0
 70
32
 0
VERTEX
 8
0
 6
CONTINUOUS
 62
 10
 10
198.7582
 20
89.3818
 30
1653.6577
 42
0
 70
32
 0
VERTEX
 8
0
 6
CONTINUOUS
 62
 10
 10
170.6455
 20
89.3818
 30
1694.1531
 42
0
 70
32
 0
SEQEND
 8
0
 62
 10
 0
POLYLINE
 8
0
 6
CONTINUOUS
 62
 10
 66
1
 10
-897.6364
 20
89.3818
 30
523.1595
 70
9
 0
VERTEX
 8
0
 6
CONTINUOUS
 62
 10
 10
198.7582
 20
-80.6182
 30
1653.6577
 42
0
 70
32
 0
VERTEX
 8
0
 6
CONTINUOUS
 62
 10
 10
198.7582
 20
-80.6182
 30
1507.8782
 42
0
 70
32
 0
VERTEX
 8
0
 6
CONTINUOUS
 62
 10
 10
198.7582
 20
89.3818
 30
1507.8782
 42
0
 70
32
 0
VERTEX
 8
0
 6
CONTINUOUS
 62
 10
 10
198.7582
 20
89.3818
 30
1653.6577
 42
0
 70
32
 0
SEQEND
 8
0
 62
 10
 0
POLYLINE
 8
0
 6
CONTINUOUS
 62
 10
 66
1
 10
-897.6364
 20
89.3818
 30
523.1595
 70
9
 0
VERTEX
 8
0
 6
CONTINUOUS
 62
 10
 10
-261.587
 20
89.3818
 30
1620.4564
 42
0
 70
32
 0
VERTEX
 8
0
 6
CONTINUOUS
 62
 10
 10
198.7582
 20
89.3818
 30
1507.8782
 42
0
 70
32
 0
VERTEX
 8
0
 6
CONTINUOUS
 62
 10
 10
198.7582
 20
-80.6182
 30
1507.8782
 42
0
 70
32
 0
VERTEX
 8
0
 6
CONTINUOUS
 62
 10
 10
-261.587
 20
-80.6182
 30
1620.4564
 42
0
 70
32
 0
SEQEND
 8
0
 62
 10
 0
POLYLINE
 8
0
 6
CONTINUOUS
 62
 10
 66
1
 10
605.6368
 20
65.385
 30
1650.9274
 70
9
 0
VERTEX
 8
0
 6
CONTINUOUS
 62
 10
 10
848.8054
 20
65.385
 30
1522.4925
 42
0
 70
32
 0
VERTEX
 8
0
 6
CONTINUOUS
 62
 10
 10
606.8526
 20
65.385
 30
1522.4925
 42
0
 70
32
 0
VERTEX
 8
0
 6
CONTINUOUS
 62
 10
 10
606.8526
 20
65.385
 30
1652.095
 42
0
 70
32
 0
VERTEX
 8
0
 6
CONTINUOUS
 62
 10
 10
848.8054
 20
65.385
 30
1652.095
 42
0
 70
32
 0
VERTEX
 8
0
 6
CONTINUOUS
 62
 10
 10
894.6268
 20
65.385
 30
1633.1152
 42
0
 70
32
 0
VERTEX
 8
0
 6
CONTINUOUS
 62
 10
 10
913.6066
 20
65.385
 30
1587.2938
 42
0
 70
32
 0
VERTEX
 8
0
 6
CONTINUOUS
 62
 10
 10
894.6268
 20
65.385
 30
1541.4724
 42
0
 70
32
 0
SEQEND
 8
0
 62
 10
 0
POLYLINE
 8
0
 6
CONTINUOUS
 62
 10
 66
1
 10
605.6368
 20
65.385
 30
1650.9274
 70
9
 0
VERTEX
 8
0
 6
CONTINUOUS
 62
 10
 10
606.8526
 20
-64.615
 30
1652.095
 42
0
 70
32
 0
VERTEX
 8
0
 6
CONTINUOUS
 62
 10
 10
606.8526
 20
-64.615
 30
1522.4925
 42
0
 70
32
 0
VERTEX
 8
0
 6
CONTINUOUS
 62
 10
 10
848.8054
 20
-64.615
 30
1522.4925
 42
0
 70
32
 0
VERTEX
 8
0
 6
CONTINUOUS
 62
 10
 10
894.6268
 20
-64.615
 30
1541.4724
 42
0
 70
32
 0
VERTEX
 8
0
 6
CONTINUOUS
 62
 10
 10
913.6066
 20
-64.615
 30
1587.2938
 42
0
 70
32
 0
VERTEX
 8
0
 6
CONTINUOUS
 62
 10
 10
894.6268
 20
-64.615
 30
1633.1152
 42
0
 70
32
 0
VERTEX
 8
0
 6
CONTINUOUS
 62
 10
 10
848.8054
 20
-64.615
 30
1652.095
 42
0
 70
32
 0
SEQEND
 8
0
 62
 10
 0
POLYLINE
 8
0
 6
CONTINUOUS
 62
 10
 66
1
 10
605.6368
 20
65.385
 30
1650.9274
 70
9
 0
VERTEX
 8
0
 6
CONTINUOUS
 62
 10
 10
766.769
 20
32.7039
 30
1522.4925
 42
0
 70
32
 0
VERTEX
 8
0
 6
CONTINUOUS
 62
 10
 10
606.8526
 20
65.385
 30
1522.4925
 42
0
 70
32
 0
VERTEX
 8
0
 6
CONTINUOUS
 62
 10
 10
848.8054
 20
65.385
 30
1522.4925
 42
0
 70
32
 0
VERTEX
 8
0
 6
CONTINUOUS
 62
 10
 10
848.8054
 20
32.7039
 30
1522.4925
 42
0
 70
32
 0
SEQEND
 8
0
 62
 10
 0
POLYLINE
 8
0
 6
CONTINUOUS
 62
 10
 66
1
 10
605.6368
 20
65.385
 30
1650.9274
 70
9
 0
VERTEX
 8
0
 6
CONTINUOUS
 62
 10
 10
606.8526
 20
-64.615
 30
1522.4925
 42
0
 70
32
 0
VERTEX
 8
0
 6
CONTINUOUS
 62
 10
 10
606.8526
 20
-64.615
 30
1652.095
 42
0
 70
32
 0
VERTEX
 8
0
 6
CONTINUOUS
 62
 10
 10
606.8526
 20
65.385
 30
1652.095
 42
0
 70
32
 0
VERTEX
 8
0
 6
CONTINUOUS
 62
 10
 10
606.8526
 20
65.385
 30
1522.4925
 42
0
 70
32
 0
SEQEND
 8
0
 62
 10
 0
POLYLINE
 8
0
 6
CONTINUOUS
 62
 10
 66
1
 10
605.6368
 20
65.385
 30
1650.9274
 70
9
 0
VERTEX
 8
0
 6
CONTINUOUS
 62
 10
 10
768.5149
 20
-32.2961
 30
1652.095
 42
0
 70
32
 0
VERTEX
 8
0
 6
CONTINUOUS
 62
 10
 10
606.8526
 20
-64.615
 30
1652.095
 42
0
 70
32
 0
VERTEX
 8
0
 6
CONTINUOUS
 62
 10
 10
848.8054
 20
-64.615
 30
1652.095
 42
0
 70
32
 0
VERTEX
 8
0
 6
CONTINUOUS
 62
 10
 10
848.8054
 20
-32.2961
 30
1652.095
 42
0
 70
32
 0
SEQEND
 8
0
 62
 10
 0
POLYLINE
 8
0
 6
CONTINUOUS
 62
 10
 66
1
 10
605.6368
 20
65.385
 30
1650.9274
 70
9
 0
VERTEX
 8
0
 6
CONTINUOUS
 62
 10
 10
848.8054
 20
-64.615
 30
1652.095
 42
0
 70
32
 0
VERTEX
 8
0
 6
CONTINUOUS
 62
 10
 10
894.6268
 20
-64.615
 30
1633.1152
 42
0
 70
32
 0
VERTEX
 8
0
 6
CONTINUOUS
 62
 10
 10
894.6268
 20
-32.2961
 30
1633.1152
 42
0
 70
32
 0
VERTEX
 8
0
 6
CONTINUOUS
 62
 10
 10
848.8054
 20
-32.2961
 30
1652.095
 42
0
 70
32
 0
SEQEND
 8
0
 62
 10
 0
POLYLINE
 8
0
 6
CONTINUOUS
 62
 10
 66
1
 10
605.6368
 20
65.385
 30
1650.9274
 70
9
 0
VERTEX
 8
0
 6
CONTINUOUS
 62
 10
 10
894.6268
 20
32.7039
 30
1633.1152
 42
0
 70
32
 0
VERTEX
 8
0
 6
CONTINUOUS
 62
 10
 10
894.6268
 20
65.385
 30
1633.1152
 42
0
 70
32
 0
VERTEX
 8
0
 6
CONTINUOUS
 62
 10
 10
848.8054
 20
65.385
 30
1652.095
 42
0
 70
32
 0
VERTEX
 8
0
 6
CONTINUOUS
 62
 10
 10
848.8054
 20
32.7039
 30
1652.095
 42
0
 70
32
 0
SEQEND
 8
0
 62
 10
 0
POLYLINE
 8
0
 6
CONTINUOUS
 62
 10
 66
1
 10
605.6368
 20
65.385
 30
1650.9274
 70
9
 0
VERTEX
 8
0
 6
CONTINUOUS
 62
 10
 10
894.6268
 20
-64.615
 30
1633.1152
 42
0
 70
32
 0
VERTEX
 8
0
 6
CONTINUOUS
 62
 10
 10
913.6066
 20
-64.615
 30
1587.2938
 42
0
 70
32
 0
VERTEX
 8
0
 6
CONTINUOUS
 62
 10
 10
913.6066
 20
-32.2961
 30
1587.2938
 42
0
 70
32
 0
VERTEX
 8
0
 6
CONTINUOUS
 62
 10
 10
894.6268
 20
-32.2961
 30
1633.1152
 42
0
 70
32
 0
SEQEND
 8
0
 62
 10
 0
POLYLINE
 8
0
 6
CONTINUOUS
 62
 10
 66
1
 10
605.6368
 20
65.385
 30
1650.9274
 70
9
 0
VERTEX
 8
0
 6
CONTINUOUS
 62
 10
 10
913.6066
 20
32.7039
 30
1587.2938
 42
0
 70
32
 0
VERTEX
 8
0
 6
CONTINUOUS
 62
 10
 10
913.6066
 20
65.385
 30
1587.2938
 42
0
 70
32
 0
VERTEX
 8
0
 6
CONTINUOUS
 62
 10
 10
894.6268
 20
65.385
 30
1633.1152
 42
0
 70
32
 0
VERTEX
 8
0
 6
CONTINUOUS
 62
 10
 10
894.6268
 20
32.7039
 30
1633.1152
 42
0
 70
32
 0
SEQEND
 8
0
 62
 10
 0
POLYLINE
 8
0
 6
CONTINUOUS
 62
 10
 66
1
 10
605.6368
 20
65.385
 30
1650.9274
 70
9
 0
VERTEX
 8
0
 6
CONTINUOUS
 62
 10
 10
913.6066
 20
-64.615
 30
1587.2938
 42
0
 70
32
 0
VERTEX
 8
0
 6
CONTINUOUS
 62
 10
 10
894.6268
 20
-64.615
 30
1541.4724
 42
0
 70
32
 0
VERTEX
 8
0
 6
CONTINUOUS
 62
 10
 10
894.6268
 20
-32.2961
 30
1541.4724
 42
0
 70
32
 0
VERTEX
 8
0
 6
CONTINUOUS
 62
 10
 10
913.6066
 20
-32.2961
 30
1587.2938
 42
0
 70
32
 0
SEQEND
 8
0
 62
 10
 0
POLYLINE
 8
0
 6
CONTINUOUS
 62
 10
 66
1
 10
605.6368
 20
65.385
 30
1650.9274
 70
9
 0
VERTEX
 8
0
 6
CONTINUOUS
 62
 10
 10
894.6268
 20
32.7039
 30
1541.4724
 42
0
 70
32
 0
VERTEX
 8
0
 6
CONTINUOUS
 62
 10
 10
894.6268
 20
65.385
 30
1541.4724
 42
0
 70
32
 0
VERTEX
 8
0
 6
CONTINUOUS
 62
 10
 10
913.6066
 20
65.385
 30
1587.2938
 42
0
 70
32
 0
VERTEX
 8
0
 6
CONTINUOUS
 62
 10
 10
913.6066
 20
32.7039
 30
1587.2938
 42
0
 70
32
 0
SEQEND
 8
0
 62
 10
 0
POLYLINE
 8
0
 6
CONTINUOUS
 62
 10
 66
1
 10
605.6368
 20
65.385
 30
1650.9274
 70
9
 0
VERTEX
 8
0
 6
CONTINUOUS
 62
 10
 10
894.6268
 20
-64.615
 30
1541.4724
 42
0
 70
32
 0
VERTEX
 8
0
 6
CONTINUOUS
 62
 10
 10
848.8054
 20
-64.615
 30
1522.4925
 42
0
 70
32
 0
VERTEX
 8
0
 6
CONTINUOUS
 62
 10
 10
848.8054
 20
-32.2961
 30
1522.4925
 42
0
 70
32
 0
VERTEX
 8
0
 6
CONTINUOUS
 62
 10
 10
894.6268
 20
-32.2961
 30
1541.4724
 42
0
 70
32
 0
SEQEND
 8
0
 62
 10
 0
POLYLINE
 8
0
 6
CONTINUOUS
 62
 10
 66
1
 10
605.6368
 20
65.385
 30
1650.9274
 70
9
 0
VERTEX
 8
0
 6
CONTINUOUS
 62
 10
 10
848.8054
 20
32.7039
 30
1522.4925
 42
0
 70
32
 0
VERTEX
 8
0
 6
CONTINUOUS
 62
 10
 10
848.8054
 20
65.385
 30
1522.4925
 42
0
 70
32
 0
VERTEX
 8
0
 6
CONTINUOUS
 62
 10
 10
894.6268
 20
65.385
 30
1541.4724
 42
0
 70
32
 0
VERTEX
 8
0
 6
CONTINUOUS
 62
 10
 10
894.6268
 20
32.7039
 30
1541.4724
 42
0
 70
32
 0
SEQEND
 8
0
 62
 10
 0
POLYLINE
 8
0
 6
CONTINUOUS
 62
 10
 66
1
 10
605.6368
 20
65.385
 30
1650.9274
 70
9
 0
VERTEX
 8
0
 6
CONTINUOUS
 62
 10
 10
764.5712
 20
-32.2961
 30
1522.4925
 42
0
 70
32
 0
VERTEX
 8
0
 6
CONTINUOUS
 62
 10
 10
606.8526
 20
-64.615
 30
1522.4925
 42
0
 70
32
 0
VERTEX
 8
0
 6
CONTINUOUS
 62
 10
 10
764.5712
 20
21.5691
 30
1522.4925
 42
0
 70
32
 0
SEQEND
 8
0
 62
 10
 0
POLYLINE
 8
0
 6
CONTINUOUS
 62
 10
 66
1
 10
605.6368
 20
65.385
 30
1650.9274
 70
9
 0
VERTEX
 8
0
 6
CONTINUOUS
 62
 10
 10
606.8526
 20
65.385
 30
1522.4925
 42
0
 70
32
 0
VERTEX
 8
0
 6
CONTINUOUS
 62
 10
 10
766.769
 20
32.7039
 30
1522.4925
 42
0
 70
32
 0
VERTEX
 8
0
 6
CONTINUOUS
 62
 10
 10
764.5712
 20
32.7039
 30
1522.4925
 42
0
 70
32
 0
SEQEND
 8
0
 62
 10
 0
POLYLINE
 8
0
 6
CONTINUOUS
 62
 10
 66
1
 10
605.6368
 20
65.385
 30
1650.9274
 70
9
 0
VERTEX
 8
0
 6
CONTINUOUS
 62
 10
 10
764.5712
 20
32.7039
 30
1652.095
 42
0
 70
32
 0
VERTEX
 8
0
 6
CONTINUOUS
 62
 10
 10
606.8526
 20
65.385
 30
1652.095
 42
0
 70
32
 0
VERTEX
 8
0
 6
CONTINUOUS
 62
 10
 10
764.5712
 20
-21.5005
 30
1652.095
 42
0
 70
32
 0
SEQEND
 8
0
 62
 10
 0
POLYLINE
 8
0
 6
CONTINUOUS
 62
 10
 66
1
 10
605.6368
 20
65.385
 30
1650.9274
 70
9
 0
VERTEX
 8
0
 6
CONTINUOUS
 62
 10
 10
606.8526
 20
-64.615
 30
1652.095
 42
0
 70
32
 0
VERTEX
 8
0
 6
CONTINUOUS
 62
 10
 10
768.5149
 20
-32.2961
 30
1652.095
 42
0
 70
32
 0
VERTEX
 8
0
 6
CONTINUOUS
 62
 10
 10
764.5712
 20
-32.2961
 30
1652.095
 42
0
 70
32
 0
SEQEND
 8
0
 62
 10
 0
POLYLINE
 8
0
 6
CONTINUOUS
 62
 10
 66
1
 10
605.6368
 20
65.385
 30
1650.9274
 70
9
 0
VERTEX
 8
0
 6
CONTINUOUS
 62
 10
 10
848.8054
 20
-32.2961
 30
1522.4925
 42
0
 70
32
 0
VERTEX
 8
0
 6
CONTINUOUS
 62
 10
 10
848.8054
 20
-64.615
 30
1522.4925
 42
0
 70
32
 0
VERTEX
 8
0
 6
CONTINUOUS
 62
 10
 10
784.564
 20
-32.2961
 30
1522.4925
 42
0
 70
32
 0
SEQEND
 8
0
 62
 10
 0
POLYLINE
 8
0
 6
CONTINUOUS
 62
 10
 66
1
 10
605.6368
 20
65.385
 30
1650.9274
 70
9
 0
VERTEX
 8
0
 6
CONTINUOUS
 62
 10
 10
848.8054
 20
-64.615
 30
1522.4925
 42
0
 70
32
 0
VERTEX
 8
0
 6
CONTINUOUS
 62
 10
 10
606.8526
 20
-64.615
 30
1522.4925
 42
0
 70
32
 0
VERTEX
 8
0
 6
CONTINUOUS
 62
 10
 10
768.5149
 20
-32.2961
 30
1522.4925
 42
0
 70
32
 0
VERTEX
 8
0
 6
CONTINUOUS
 62
 10
 10
784.564
 20
-32.2961
 30
1522.4925
 42
0
 70
32
 0
SEQEND
 8
0
 62
 10
 0
POLYLINE
 8
0
 6
CONTINUOUS
 62
 10
 66
1
 10
605.6368
 20
65.385
 30
1650.9274
 70
9
 0
VERTEX
 8
0
 6
CONTINUOUS
 62
 10
 10
848.8054
 20
32.7039
 30
1652.095
 42
0
 70
32
 0
VERTEX
 8
0
 6
CONTINUOUS
 62
 10
 10
848.8054
 20
65.385
 30
1652.095
 42
0
 70
32
 0
VERTEX
 8
0
 6
CONTINUOUS
 62
 10
 10
785.2578
 20
32.7039
 30
1652.095
 42
0
 70
32
 0
SEQEND
 8
0
 62
 10
 0
POLYLINE
 8
0
 6
CONTINUOUS
 62
 10
 66
1
 10
605.6368
 20
65.385
 30
1650.9274
 70
9
 0
VERTEX
 8
0
 6
CONTINUOUS
 62
 10
 10
848.8054
 20
65.385
 30
1652.095
 42
0
 70
32
 0
VERTEX
 8
0
 6
CONTINUOUS
 62
 10
 10
606.8526
 20
65.385
 30
1652.095
 42
0
 70
32
 0
VERTEX
 8
0
 6
CONTINUOUS
 62
 10
 10
766.769
 20
32.7039
 30
1652.095
 42
0
 70
32
 0
VERTEX
 8
0
 6
CONTINUOUS
 62
 10
 10
785.2578
 20
32.7039
 30
1652.095
 42
0
 70
32
 0
SEQEND
 8
0
 62
 10
 0
POLYLINE
 8
0
 6
CONTINUOUS
 62
 10
 66
1
 10
605.6368
 20
65.385
 30
1650.9274
 70
9
 0
VERTEX
 8
0
 6
CONTINUOUS
 62
 10
 10
764.5712
 20
-32.2961
 30
1652.095
 42
0
 70
32
 0
VERTEX
 8
0
 6
CONTINUOUS
 62
 10
 10
764.5712
 20
-32.2961
 30
1522.4925
 42
0
 70
32
 0
VERTEX
 8
0
 6
CONTINUOUS
 62
 10
 10
764.5712
 20
21.5691
 30
1522.4925
 42
0
 70
32
 0
VERTEX
 8
0
 6
CONTINUOUS
 62
 10
 10
764.5712
 20
32.7039
 30
1522.4925
 42
0
 70
32
 0
VERTEX
 8
0
 6
CONTINUOUS
 62
 10
 10
764.5712
 20
32.7039
 30
1652.095
 42
0
 70
32
 0
VERTEX
 8
0
 6
CONTINUOUS
 62
 10
 10
764.5712
 20
-21.5005
 30
1652.095
 42
0
 70
32
 0
SEQEND
 8
0
 62
 10
 0
POLYLINE
 8
0
 6
CONTINUOUS
 62
 10
 66
1
 10
605.6368
 20
65.385
 30
1650.9274
 70
9
 0
VERTEX
 8
0
 6
CONTINUOUS
 62
 10
 10
764.5712
 20
32.7039
 30
1652.095
 42
0
 70
32
 0
VERTEX
 8
0
 6
CONTINUOUS
 62
 10
 10
764.5712
 20
32.7039
 30
1522.4925
 42
0
 70
32
 0
VERTEX
 8
0
 6
CONTINUOUS
 62
 10
 10
766.769
 20
32.7039
 30
1522.4925
 42
0
 70
32
 0
VERTEX
 8
0
 6
CONTINUOUS
 62
 10
 10
848.8054
 20
32.7039
 30
1522.4925
 42
0
 70
32
 0
VERTEX
 8
0
 6
CONTINUOUS
 62
 10
 10
894.6268
 20
32.7039
 30
1541.4724
 42
0
 70
32
 0
VERTEX
 8
0
 6
CONTINUOUS
 62
 10
 10
913.6066
 20
32.7039
 30
1587.2938
 42
0
 70
32
 0
VERTEX
 8
0
 6
CONTINUOUS
 62
 10
 10
894.6268
 20
32.7039
 30
1633.1152
 42
0
 70
32
 0
VERTEX
 8
0
 6
CONTINUOUS
 62
 10
 10
848.8054
 20
32.7039
 30
1652.095
 42
0
 70
32
 0
VERTEX
 8
0
 6
CONTINUOUS
 62
 10
 10
785.2578
 20
32.7039
 30
1652.095
 42
0
 70
32
 0
VERTEX
 8
0
 6
CONTINUOUS
 62
 10
 10
766.769
 20
32.7039
 30
1652.095
 42
0
 70
32
 0
SEQEND
 8
0
 62
 10
 0
POLYLINE
 8
0
 6
CONTINUOUS
 62
 10
 66
1
 10
605.6368
 20
65.385
 30
1650.9274
 70
9
 0
VERTEX
 8
0
 6
CONTINUOUS
 62
 10
 10
768.5149
 20
-32.2961
 30
1522.4925
 42
0
 70
32
 0
VERTEX
 8
0
 6
CONTINUOUS
 62
 10
 10
764.5712
 20
-32.2961
 30
1522.4925
 42
0
 70
32
 0
VERTEX
 8
0
 6
CONTINUOUS
 62
 10
 10
764.5712
 20
-32.2961
 30
1652.095
 42
0
 70
32
 0
VERTEX
 8
0
 6
CONTINUOUS
 62
 10
 10
768.5149
 20
-32.2961
 30
1652.095
 42
0
 70
32
 0
VERTEX
 8
0
 6
CONTINUOUS
 62
 10
 10
848.8054
 20
-32.2961
 30
1652.095
 42
0
 70
32
 0
VERTEX
 8
0
 6
CONTINUOUS
 62
 10
 10
894.6268
 20
-32.2961
 30
1633.1152
 42
0
 70
32
 0
VERTEX
 8
0
 6
CONTINUOUS
 62
 10
 10
913.6066
 20
-32.2961
 30
1587.2938
 42
0
 70
32
 0
VERTEX
 8
0
 6
CONTINUOUS
 62
 10
 10
894.6268
 20
-32.2961
 30
1541.4724
 42
0
 70
32
 0
VERTEX
 8
0
 6
CONTINUOUS
 62
 10
 10
848.8054
 20
-32.2961
 30
1522.4925
 42
0
 70
32
 0
VERTEX
 8
0
 6
CONTINUOUS
 62
 10
 10
784.564
 20
-32.2961
 30
1522.4925
 42
0
 70
32
 0
SEQEND
 8
0
 62
 10
 0
POLYLINE
 8
0
 6
CONTINUOUS
 62
 10
 66
1
 10
605.6368
 20
65.385
 30
1650.9274
 70
9
 0
VERTEX
 8
0
 6
CONTINUOUS
 62
 10
 10
764.5712
 20
-32.2961
 30
1522.4925
 42
0
 70
32
 0
VERTEX
 8
0
 6
CONTINUOUS
 62
 10
 10
768.5149
 20
-32.2961
 30
1522.4925
 42
0
 70
32
 0
VERTEX
 8
0
 6
CONTINUOUS
 62
 10
 10
606.8526
 20
-64.615
 30
1522.4925
 42
0
 70
32
 0
SEQEND
 8
0
 62
 10
 0
POLYLINE
 8
0
 6
CONTINUOUS
 62
 10
 66
1
 10
605.6368
 20
65.385
 30
1650.9274
 70
9
 0
VERTEX
 8
0
 6
CONTINUOUS
 62
 10
 10
764.5712
 20
21.5691
 30
1522.4925
 42
0
 70
32
 0
VERTEX
 8
0
 6
CONTINUOUS
 62
 10
 10
606.8526
 20
-64.615
 30
1522.4925
 42
0
 70
32
 0
VERTEX
 8
0
 6
CONTINUOUS
 62
 10
 10
606.8526
 20
65.385
 30
1522.4925
 42
0
 70
32
 0
VERTEX
 8
0
 6
CONTINUOUS
 62
 10
 10
764.5712
 20
32.7039
 30
1522.4925
 42
0
 70
32
 0
SEQEND
 8
0
 62
 10
 0
POLYLINE
 8
0
 6
CONTINUOUS
 62
 10
 66
1
 10
605.6368
 20
65.385
 30
1650.9274
 70
9
 0
VERTEX
 8
0
 6
CONTINUOUS
 62
 10
 10
764.5712
 20
32.7039
 30
1652.095
 42
0
 70
32
 0
VERTEX
 8
0
 6
CONTINUOUS
 62
 10
 10
766.769
 20
32.7039
 30
1652.095
 42
0
 70
32
 0
VERTEX
 8
0
 6
CONTINUOUS
 62
 10
 10
606.8526
 20
65.385
 30
1652.095
 42
0
 70
32
 0
SEQEND
 8
0
 62
 10
 0
POLYLINE
 8
0
 6
CONTINUOUS
 62
 10
 66
1
 10
605.6368
 20
65.385
 30
1650.9274
 70
9
 0
VERTEX
 8
0
 6
CONTINUOUS
 62
 10
 10
764.5712
 20
-21.5005
 30
1652.095
 42
0
 70
32
 0
VERTEX
 8
0
 6
CONTINUOUS
 62
 10
 10
606.8526
 20
65.385
 30
1652.095
 42
0
 70
32
 0
VERTEX
 8
0
 6
CONTINUOUS
 62
 10
 10
606.8526
 20
-64.615
 30
1652.095
 42
0
 70
32
 0
VERTEX
 8
0
 6
CONTINUOUS
 62
 10
 10
764.5712
 20
-32.2961
 30
1652.095
 42
0
 70
32
 0
SEQEND
 8
0
 62
 10
 0
POLYLINE
 8
0
 6
CONTINUOUS
 62
 10
 66
1
 10
886.0875
 20
-0
 30
1555
 70
9
 0
VERTEX
 8
0
 6
CONTINUOUS
 62
 10
 10
844.0875
 20
-20
 30
1555
 42
0
 70
32
 0
VERTEX
 8
0
 6
CONTINUOUS
 62
 10
 10
844.0875
 20
20
 30
1555
 42
0
 70
32
 0
VERTEX
 8
0
 6
CONTINUOUS
 62
 10
 10
928.0875
 20
20
 30
1555
 42
0
 70
32
 0
VERTEX
 8
0
 6
CONTINUOUS
 62
 10
 10
928.0875
 20
-20
 30
1555
 42
0
 70
32
 0
SEQEND
 8
0
 62
 10
 0
POLYLINE
 8
0
 6
CONTINUOUS
 62
 10
 66
1
 10
886.0875
 20
-0
 30
1555
 70
9
 0
VERTEX
 8
0
 6
CONTINUOUS
 62
 10
 10
844.0875
 20
-20
 30
1615
 42
0
 70
32
 0
VERTEX
 8
0
 6
CONTINUOUS
 62
 10
 10
928.0875
 20
-20
 30
1615
 42
0
 70
32
 0
VERTEX
 8
0
 6
CONTINUOUS
 62
 10
 10
928.0875
 20
20
 30
1615
 42
0
 70
32
 0
VERTEX
 8
0
 6
CONTINUOUS
 62
 10
 10
844.0875
 20
20
 30
1615
 42
0
 70
32
 0
SEQEND
 8
0
 62
 10
 0
POLYLINE
 8
0
 6
CONTINUOUS
 62
 10
 66
1
 10
886.0875
 20
-0
 30
1555
 70
9
 0
VERTEX
 8
0
 6
CONTINUOUS
 62
 10
 10
844.0875
 20
-20
 30
1615
 42
0
 70
32
 0
VERTEX
 8
0
 6
CONTINUOUS
 62
 10
 10
844.0875
 20
20
 30
1615
 42
0
 70
32
 0
VERTEX
 8
0
 6
CONTINUOUS
 62
 10
 10
844.0875
 20
20
 30
1555
 42
0
 70
32
 0
VERTEX
 8
0
 6
CONTINUOUS
 62
 10
 10
844.0875
 20
-20
 30
1555
 42
0
 70
32
 0
SEQEND
 8
0
 62
 10
 0
POLYLINE
 8
0
 6
CONTINUOUS
 62
 10
 66
1
 10
886.0875
 20
-0
 30
1555
 70
9
 0
VERTEX
 8
0
 6
CONTINUOUS
 62
 10
 10
844.0875
 20
20
 30
1615
 42
0
 70
32
 0
VERTEX
 8
0
 6
CONTINUOUS
 62
 10
 10
928.0875
 20
20
 30
1615
 42
0
 70
32
 0
VERTEX
 8
0
 6
CONTINUOUS
 62
 10
 10
928.0875
 20
20
 30
1555
 42
0
 70
32
 0
VERTEX
 8
0
 6
CONTINUOUS
 62
 10
 10
844.0875
 20
20
 30
1555
 42
0
 70
32
 0
SEQEND
 8
0
 62
 10
 0
POLYLINE
 8
0
 6
CONTINUOUS
 62
 10
 66
1
 10
886.0875
 20
-0
 30
1555
 70
9
 0
VERTEX
 8
0
 6
CONTINUOUS
 62
 10
 10
928.0875
 20
20
 30
1615
 42
0
 70
32
 0
VERTEX
 8
0
 6
CONTINUOUS
 62
 10
 10
928.0875
 20
-20
 30
1615
 42
0
 70
32
 0
VERTEX
 8
0
 6
CONTINUOUS
 62
 10
 10
928.0875
 20
-20
 30
1555
 42
0
 70
32
 0
VERTEX
 8
0
 6
CONTINUOUS
 62
 10
 10
928.0875
 20
20
 30
1555
 42
0
 70
32
 0
SEQEND
 8
0
 62
 10
 0
POLYLINE
 8
0
 6
CONTINUOUS
 62
 10
 66
1
 10
886.0875
 20
-0
 30
1555
 70
9
 0
VERTEX
 8
0
 6
CONTINUOUS
 62
 10
 10
928.0875
 20
-20
 30
1615
 42
0
 70
32
 0
VERTEX
 8
0
 6
CONTINUOUS
 62
 10
 10
844.0875
 20
-20
 30
1615
 42
0
 70
32
 0
VERTEX
 8
0
 6
CONTINUOUS
 62
 10
 10
844.0875
 20
-20
 30
1555
 42
0
 70
32
 0
VERTEX
 8
0
 6
CONTINUOUS
 62
 10
 10
928.0875
 20
-20
 30
1555
 42
0
 70
32
 0
SEQEND
 8
0
 62
 10
 0
POLYLINE
 8
0
 6
CONTINUOUS
 62
 7
 66
1
 10
950
 20
-0
 30
1585
 70
9
 0
VERTEX
 8
0
 6
CONTINUOUS
 62
 7
 10
950
 20
-0
 30
1550
 42
0
 70
32
 0
VERTEX
 8
0
 6
CONTINUOUS
 62
 7
 10
950
 20
30.3109
 30
1567.5
 42
0
 70
32
 0
VERTEX
 8
0
 6
CONTINUOUS
 62
 7
 10
950
 20
30.3109
 30
1602.5
 42
0
 70
32
 0
VERTEX
 8
0
 6
CONTINUOUS
 62
 7
 10
950
 20
-0
 30
1620
 42
0
 70
32
 0
VERTEX
 8
0
 6
CONTINUOUS
 62
 7
 10
950
 20
-30.3109
 30
1602.5
 42
0
 70
32
 0
VERTEX
 8
0
 6
CONTINUOUS
 62
 7
 10
950
 20
-30.3109
 30
1567.5
 42
0
 70
32
 0
SEQEND
 8
0
 62
 7
 0
POLYLINE
 8
0
 6
CONTINUOUS
 62
 7
 66
1
 10
950
 20
-0
 30
1585
 70
9
 0
VERTEX
 8
0
 6
CONTINUOUS
 62
 7
 10
940
 20
-0
 30
1550
 42
0
 70
32
 0
VERTEX
 8
0
 6
CONTINUOUS
 62
 7
 10
940
 20
-30.3109
 30
1567.5
 42
0
 70
32
 0
VERTEX
 8
0
 6
CONTINUOUS
 62
 7
 10
940
 20
-30.3109
 30
1602.5
 42
0
 70
32
 0
VERTEX
 8
0
 6
CONTINUOUS
 62
 7
 10
940
 20
-0
 30
1620
 42
0
 70
32
 0
VERTEX
 8
0
 6
CONTINUOUS
 62
 7
 10
940
 20
30.3109
 30
1602.5
 42
0
 70
32
 0
VERTEX
 8
0
 6
CONTINUOUS
 62
 7
 10
940
 20
30.3109
 30
1567.5
 42
0
 70
32
 0
SEQEND
 8
0
 62
 7
 0
POLYLINE
 8
0
 6
CONTINUOUS
 62
 7
 66
1
 10
950
 20
-0
 30
1585
 70
9
 0
VERTEX
 8
0
 6
CONTINUOUS
 62
 7
 10
940
 20
-0
 30
1550
 42
0
 70
32
 0
VERTEX
 8
0
 6
CONTINUOUS
 62
 7
 10
940
 20
30.3109
 30
1567.5
 42
0
 70
32
 0
VERTEX
 8
0
 6
CONTINUOUS
 62
 7
 10
950
 20
30.3109
 30
1567.5
 42
0
 70
32
 0
VERTEX
 8
0
 6
CONTINUOUS
 62
 7
 10
950
 20
-0
 30
1550
 42
0
 70
32
 0
SEQEND
 8
0
 62
 7
 0
POLYLINE
 8
0
 6
CONTINUOUS
 62
 7
 66
1
 10
950
 20
-0
 30
1585
 70
9
 0
VERTEX
 8
0
 6
CONTINUOUS
 62
 7
 10
940
 20
30.3109
 30
1567.5
 42
0
 70
32
 0
VERTEX
 8
0
 6
CONTINUOUS
 62
 7
 10
940
 20
30.3109
 30
1602.5
 42
0
 70
32
 0
VERTEX
 8
0
 6
CONTINUOUS
 62
 7
 10
950
 20
30.3109
 30
1602.5
 42
0
 70
32
 0
VERTEX
 8
0
 6
CONTINUOUS
 62
 7
 10
950
 20
30.3109
 30
1567.5
 42
0
 70
32
 0
SEQEND
 8
0
 62
 7
 0
POLYLINE
 8
0
 6
CONTINUOUS
 62
 7
 66
1
 10
950
 20
-0
 30
1585
 70
9
 0
VERTEX
 8
0
 6
CONTINUOUS
 62
 7
 10
940
 20
30.3109
 30
1602.5
 42
0
 70
32
 0
VERTEX
 8
0
 6
CONTINUOUS
 62
 7
 10
940
 20
-0
 30
1620
 42
0
 70
32
 0
VERTEX
 8
0
 6
CONTINUOUS
 62
 7
 10
950
 20
-0
 30
1620
 42
0
 70
32
 0
VERTEX
 8
0
 6
CONTINUOUS
 62
 7
 10
950
 20
30.3109
 30
1602.5
 42
0
 70
32
 0
SEQEND
 8
0
 62
 7
 0
POLYLINE
 8
0
 6
CONTINUOUS
 62
 7
 66
1
 10
950
 20
-0
 30
1585
 70
9
 0
VERTEX
 8
0
 6
CONTINUOUS
 62
 7
 10
940
 20
-0
 30
1620
 42
0
 70
32
 0
VERTEX
 8
0
 6
CONTINUOUS
 62
 7
 10
940
 20
-30.3109
 30
1602.5
 42
0
 70
32
 0
VERTEX
 8
0
 6
CONTINUOUS
 62
 7
 10
950
 20
-30.3109
 30
1602.5
 42
0
 70
32
 0
VERTEX
 8
0
 6
CONTINUOUS
 62
 7
 10
950
 20
-0
 30
1620
 42
0
 70
32
 0
SEQEND
 8
0
 62
 7
 0
POLYLINE
 8
0
 6
CONTINUOUS
 62
 7
 66
1
 10
950
 20
-0
 30
1585
 70
9
 0
VERTEX
 8
0
 6
CONTINUOUS
 62
 7
 10
940
 20
-30.3109
 30
1602.5
 42
0
 70
32
 0
VERTEX
 8
0
 6
CONTINUOUS
 62
 7
 10
940
 20
-30.3109
 30
1567.5
 42
0
 70
32
 0
VERTEX
 8
0
 6
CONTINUOUS
 62
 7
 10
950
 20
-30.3109
 30
1567.5
 42
0
 70
32
 0
VERTEX
 8
0
 6
CONTINUOUS
 62
 7
 10
950
 20
-30.3109
 30
1602.5
 42
0
 70
32
 0
SEQEND
 8
0
 62
 7
 0
POLYLINE
 8
0
 6
CONTINUOUS
 62
 7
 66
1
 10
950
 20
-0
 30
1585
 70
9
 0
VERTEX
 8
0
 6
CONTINUOUS
 62
 7
 10
940
 20
-30.3109
 30
1567.5
 42
0
 70
32
 0
VERTEX
 8
0
 6
CONTINUOUS
 62
 7
 10
940
 20
-0
 30
1550
 42
0
 70
32
 0
VERTEX
 8
0
 6
CONTINUOUS
 62
 7
 10
950
 20
-0
 30
1550
 42
0
 70
32
 0
VERTEX
 8
0
 6
CONTINUOUS
 62
 7
 10
950
 20
-30.3109
 30
1567.5
 42
0
 70
32
 0
SEQEND
 8
0
 62
 7
 0
POLYLINE
 8
0
 6
CONTINUOUS
 62
 10
 66
1
 10
-31.4144
 20
89.3818
 30
1609.3657
 70
9
 0
VERTEX
 8
0
 6
CONTINUOUS
 62
 10
 10
-261.587
 20
89.3818
 30
1404.7793
 42
0
 70
32
 0
VERTEX
 8
0
 6
CONTINUOUS
 62
 10
 10
-261.587
 20
89.3818
 30
1617.3805
 42
0
 70
32
 0
VERTEX
 8
0
 6
CONTINUOUS
 62
 10
 10
198.7582
 20
89.3818
 30
1505.1743
 42
0
 70
32
 0
VERTEX
 8
0
 6
CONTINUOUS
 62
 10
 10
86.3075
 20
89.3818
 30
1404.7793
 42
0
 70
32
 0
SEQEND
 8
0
 62
 10
 0
POLYLINE
 8
0
 6
CONTINUOUS
 62
 10
 66
1
 10
-31.4144
 20
89.3818
 30
1609.3657
 70
9
 0
VERTEX
 8
0
 6
CONTINUOUS
 62
 10
 10
198.7582
 20
84.3818
 30
1505.1743
 42
0
 70
32
 0
VERTEX
 8
0
 6
CONTINUOUS
 62
 10
 10
-261.587
 20
84.3818
 30
1617.3805
 42
0
 70
32
 0
VERTEX
 8
0
 6
CONTINUOUS
 62
 10
 10
-261.587
 20
84.3818
 30
1404.7793
 42
0
 70
32
 0
VERTEX
 8
0
 6
CONTINUOUS
 62
 10
 10
86.3075
 20
84.3818
 30
1404.7793
 42
0
 70
32
 0
SEQEND
 8
0
 62
 10
 0
POLYLINE
 8
0
 6
CONTINUOUS
 62
 10
 66
1
 10
-31.4144
 20
89.3818
 30
1609.3657
 70
9
 0
VERTEX
 8
0
 6
CONTINUOUS
 62
 10
 10
-261.587
 20
84.3818
 30
1404.7793
 42
0
 70
32
 0
VERTEX
 8
0
 6
CONTINUOUS
 62
 10
 10
-261.587
 20
84.3818
 30
1617.3805
 42
0
 70
32
 0
VERTEX
 8
0
 6
CONTINUOUS
 62
 10
 10
-261.587
 20
89.3818
 30
1617.3805
 42
0
 70
32
 0
VERTEX
 8
0
 6
CONTINUOUS
 62
 10
 10
-261.587
 20
89.3818
 30
1404.7793
 42
0
 70
32
 0
SEQEND
 8
0
 62
 10
 0
POLYLINE
 8
0
 6
CONTINUOUS
 62
 10
 66
1
 10
-31.4144
 20
89.3818
 30
1609.3657
 70
9
 0
VERTEX
 8
0
 6
CONTINUOUS
 62
 10
 10
-261.587
 20
84.3818
 30
1617.3805
 42
0
 70
32
 0
VERTEX
 8
0
 6
CONTINUOUS
 62
 10
 10
198.7582
 20
84.3818
 30
1505.1743
 42
0
 70
32
 0
VERTEX
 8
0
 6
CONTINUOUS
 62
 10
 10
198.7582
 20
89.3818
 30
1505.1743
 42
0
 70
32
 0
VERTEX
 8
0
 6
CONTINUOUS
 62
 10
 10
-261.587
 20
89.3818
 30
1617.3805
 42
0
 70
32
 0
SEQEND
 8
0
 62
 10
 0
POLYLINE
 8
0
 6
CONTINUOUS
 62
 10
 66
1
 10
-31.4144
 20
89.3818
 30
1609.3657
 70
9
 0
VERTEX
 8
0
 6
CONTINUOUS
 62
 10
 10
198.7582
 20
84.3818
 30
1505.1743
 42
0
 70
32
 0
VERTEX
 8
0
 6
CONTINUOUS
 62
 10
 10
86.3075
 20
84.3818
 30
1404.7793
 42
0
 70
32
 0
VERTEX
 8
0
 6
CONTINUOUS
 62
 10
 10
86.3075
 20
89.3818
 30
1404.7793
 42
0
 70
32
 0
VERTEX
 8
0
 6
CONTINUOUS
 62
 10
 10
198.7582
 20
89.3818
 30
1505.1743
 42
0
 70
32
 0
SEQEND
 8
0
 62
 10
 0
POLYLINE
 8
0
 6
CONTINUOUS
 62
 10
 66
1
 10
-31.4144
 20
89.3818
 30
1609.3657
 70
9
 0
VERTEX
 8
0
 6
CONTINUOUS
 62
 10
 10
86.3075
 20
84.3818
 30
1404.7793
 42
0
 70
32
 0
VERTEX
 8
0
 6
CONTINUOUS
 62
 10
 10
-261.587
 20
84.3818
 30
1404.7793
 42
0
 70
32
 0
VERTEX
 8
0
 6
CONTINUOUS
 62
 10
 10
-261.587
 20
89.3818
 30
1404.7793
 42
0
 70
32
 0
VERTEX
 8
0
 6
CONTINUOUS
 62
 10
 10
86.3075
 20
89.3818
 30
1404.7793
 42
0
 70
32
 0
SEQEND
 8
0
 62
 10
 0
POLYLINE
 8
0
 6
CONTINUOUS
 62
 10
 66
1
 10
-31.4144
 20
-75.9747
 30
1609.3657
 70
9
 0
VERTEX
 8
0
 6
CONTINUOUS
 62
 10
 10
-261.587
 20
-75.9747
 30
1404.7793
 42
0
 70
32
 0
VERTEX
 8
0
 6
CONTINUOUS
 62
 10
 10
-261.587
 20
-75.9747
 30
1617.3805
 42
0
 70
32
 0
VERTEX
 8
0
 6
CONTINUOUS
 62
 10
 10
198.7582
 20
-75.9747
 30
1505.1743
 42
0
 70
32
 0
VERTEX
 8
0
 6
CONTINUOUS
 62
 10
 10
86.3075
 20
-75.9747
 30
1404.7793
 42
0
 70
32
 0
SEQEND
 8
0
 62
 10
 0
POLYLINE
 8
0
 6
CONTINUOUS
 62
 10
 66
1
 10
-31.4144
 20
-75.9747
 30
1609.3657
 70
9
 0
VERTEX
 8
0
 6
CONTINUOUS
 62
 10
 10
-261.587
 20
-80.9747
 30
1404.7793
 42
0
 70
32
 0
VERTEX
 8
0
 6
CONTINUOUS
 62
 10
 10
86.3075
 20
-80.9747
 30
1404.7793
 42
0
 70
32
 0
VERTEX
 8
0
 6
CONTINUOUS
 62
 10
 10
198.7582
 20
-80.9747
 30
1505.1743
 42
0
 70
32
 0
VERTEX
 8
0
 6
CONTINUOUS
 62
 10
 10
-261.587
 20
-80.9747
 30
1617.3805
 42
0
 70
32
 0
SEQEND
 8
0
 62
 10
 0
POLYLINE
 8
0
 6
CONTINUOUS
 62
 10
 66
1
 10
-31.4144
 20
-75.9747
 30
1609.3657
 70
9
 0
VERTEX
 8
0
 6
CONTINUOUS
 62
 10
 10
-261.587
 20
-80.9747
 30
1404.7793
 42
0
 70
32
 0
VERTEX
 8
0
 6
CONTINUOUS
 62
 10
 10
-261.587
 20
-80.9747
 30
1617.3805
 42
0
 70
32
 0
VERTEX
 8
0
 6
CONTINUOUS
 62
 10
 10
-261.587
 20
-75.9747
 30
1617.3805
 42
0
 70
32
 0
VERTEX
 8
0
 6
CONTINUOUS
 62
 10
 10
-261.587
 20
-75.9747
 30
1404.7793
 42
0
 70
32
 0
SEQEND
 8
0
 62
 10
 0
POLYLINE
 8
0
 6
CONTINUOUS
 62
 10
 66
1
 10
-31.4144
 20
-75.9747
 30
1609.3657
 70
9
 0
VERTEX
 8
0
 6
CONTINUOUS
 62
 10
 10
-261.587
 20
-80.9747
 30
1617.3805
 42
0
 70
32
 0
VERTEX
 8
0
 6
CONTINUOUS
 62
 10
 10
198.7582
 20
-80.9747
 30
1505.1743
 42
0
 70
32
 0
VERTEX
 8
0
 6
CONTINUOUS
 62
 10
 10
198.7582
 20
-75.9747
 30
1505.1743
 42
0
 70
32
 0
VERTEX
 8
0
 6
CONTINUOUS
 62
 10
 10
-261.587
 20
-75.9747
 30
1617.3805
 42
0
 70
32
 0
SEQEND
 8
0
 62
 10
 0
POLYLINE
 8
0
 6
CONTINUOUS
 62
 10
 66
1
 10
-31.4144
 20
-75.9747
 30
1609.3657
 70
9
 0
VERTEX
 8
0
 6
CONTINUOUS
 62
 10
 10
198.7582
 20
-80.9747
 30
1505.1743
 42
0
 70
32
 0
VERTEX
 8
0
 6
CONTINUOUS
 62
 10
 10
86.3075
 20
-80.9747
 30
1404.7793
 42
0
 70
32
 0
VERTEX
 8
0
 6
CONTINUOUS
 62
 10
 10
86.3075
 20
-75.9747
 30
1404.7793
 42
0
 70
32
 0
VERTEX
 8
0
 6
CONTINUOUS
 62
 10
 10
198.7582
 20
-75.9747
 30
1505.1743
 42
0
 70
32
 0
SEQEND
 8
0
 62
 10
 0
POLYLINE
 8
0
 6
CONTINUOUS
 62
 10
 66
1
 10
-31.4144
 20
-75.9747
 30
1609.3657
 70
9
 0
VERTEX
 8
0
 6
CONTINUOUS
 62
 10
 10
86.3075
 20
-80.9747
 30
1404.7793
 42
0
 70
32
 0
VERTEX
 8
0
 6
CONTINUOUS
 62
 10
 10
-261.587
 20
-80.9747
 30
1404.7793
 42
0
 70
32
 0
VERTEX
 8
0
 6
CONTINUOUS
 62
 10
 10
-261.587
 20
-75.9747
 30
1404.7793
 42
0
 70
32
 0
VERTEX
 8
0
 6
CONTINUOUS
 62
 10
 10
86.3075
 20
-75.9747
 30
1404.7793
 42
0
 70
32
 0
SEQEND
 8
0
 62
 10
 0
POLYLINE
 8
0
 6
CONTINUOUS
 62
 8
 66
1
 10
0
 20
93.8597
 30
1460
 70
9
 0
VERTEX
 8
0
 6
CONTINUOUS
 62
 8
 10
-20.8264
 20
93.8597
 30
1416.7535
 42
0
 70
32
 0
VERTEX
 8
0
 6
CONTINUOUS
 62
 8
 10
-46.7965
 20
93.8597
 30
1449.319
 42
0
 70
32
 0
VERTEX
 8
0
 6
CONTINUOUS
 62
 8
 10
-37.5279
 20
93.8597
 30
1489.9275
 42
0
 70
32
 0
VERTEX
 8
0
 6
CONTINUOUS
 62
 8
 10
0
 20
93.8597
 30
1508
 42
0
 70
32
 0
VERTEX
 8
0
 6
CONTINUOUS
 62
 8
 10
37.5279
 20
93.8597
 30
1489.9275
 42
0
 70
32
 0
VERTEX
 8
0
 6
CONTINUOUS
 62
 8
 10
46.7965
 20
93.8597
 30
1449.319
 42
0
 70
32
 0
VERTEX
 8
0
 6
CONTINUOUS
 62
 8
 10
20.8264
 20
93.8597
 30
1416.7535
 42
0
 70
32
 0
SEQEND
 8
0
 62
 8
 0
POLYLINE
 8
0
 6
CONTINUOUS
 62
 8
 66
1
 10
0
 20
93.8597
 30
1460
 70
9
 0
VERTEX
 8
0
 6
CONTINUOUS
 62
 8
 10
-20.8264
 20
92.8597
 30
1416.7535
 42
0
 70
32
 0
VERTEX
 8
0
 6
CONTINUOUS
 62
 8
 10
20.8264
 20
92.8597
 30
1416.7535
 42
0
 70
32
 0
VERTEX
 8
0
 6
CONTINUOUS
 62
 8
 10
46.7965
 20
92.8597
 30
1449.319
 42
0
 70
32
 0
VERTEX
 8
0
 6
CONTINUOUS
 62
 8
 10
37.5279
 20
92.8597
 30
1489.9275
 42
0
 70
32
 0
VERTEX
 8
0
 6
CONTINUOUS
 62
 8
 10
0
 20
92.8597
 30
1508
 42
0
 70
32
 0
VERTEX
 8
0
 6
CONTINUOUS
 62
 8
 10
-37.5279
 20
92.8597
 30
1489.9275
 42
0
 70
32
 0
VERTEX
 8
0
 6
CONTINUOUS
 62
 8
 10
-46.7965
 20
92.8597
 30
1449.319
 42
0
 70
32
 0
SEQEND
 8
0
 62
 8
 0
POLYLINE
 8
0
 6
CONTINUOUS
 62
 8
 66
1
 10
0
 20
93.8597
 30
1460
 70
9
 0
VERTEX
 8
0
 6
CONTINUOUS
 62
 8
 10
-20.8264
 20
92.8597
 30
1416.7535
 42
0
 70
32
 0
VERTEX
 8
0
 6
CONTINUOUS
 62
 8
 10
-46.7965
 20
92.8597
 30
1449.319
 42
0
 70
32
 0
VERTEX
 8
0
 6
CONTINUOUS
 62
 8
 10
-46.7965
 20
93.8597
 30
1449.319
 42
0
 70
32
 0
VERTEX
 8
0
 6
CONTINUOUS
 62
 8
 10
-20.8264
 20
93.8597
 30
1416.7535
 42
0
 70
32
 0
SEQEND
 8
0
 62
 8
 0
POLYLINE
 8
0
 6
CONTINUOUS
 62
 8
 66
1
 10
0
 20
93.8597
 30
1460
 70
9
 0
VERTEX
 8
0
 6
CONTINUOUS
 62
 8
 10
-46.7965
 20
92.8597
 30
1449.319
 42
0
 70
32
 0
VERTEX
 8
0
 6
CONTINUOUS
 62
 8
 10
-37.5279
 20
92.8597
 30
1489.9275
 42
0
 70
32
 0
VERTEX
 8
0
 6
CONTINUOUS
 62
 8
 10
-37.5279
 20
93.8597
 30
1489.9275
 42
0
 70
32
 0
VERTEX
 8
0
 6
CONTINUOUS
 62
 8
 10
-46.7965
 20
93.8597
 30
1449.319
 42
0
 70
32
 0
SEQEND
 8
0
 62
 8
 0
POLYLINE
 8
0
 6
CONTINUOUS
 62
 8
 66
1
 10
0
 20
93.8597
 30
1460
 70
9
 0
VERTEX
 8
0
 6
CONTINUOUS
 62
 8
 10
-37.5279
 20
92.8597
 30
1489.9275
 42
0
 70
32
 0
VERTEX
 8
0
 6
CONTINUOUS
 62
 8
 10
0
 20
92.8597
 30
1508
 42
0
 70
32
 0
VERTEX
 8
0
 6
CONTINUOUS
 62
 8
 10
0
 20
93.8597
 30
1508
 42
0
 70
32
 0
VERTEX
 8
0
 6
CONTINUOUS
 62
 8
 10
-37.5279
 20
93.8597
 30
1489.9275
 42
0
 70
32
 0
SEQEND
 8
0
 62
 8
 0
POLYLINE
 8
0
 6
CONTINUOUS
 62
 8
 66
1
 10
0
 20
93.8597
 30
1460
 70
9
 0
VERTEX
 8
0
 6
CONTINUOUS
 62
 8
 10
0
 20
92.8597
 30
1508
 42
0
 70
32
 0
VERTEX
 8
0
 6
CONTINUOUS
 62
 8
 10
37.5279
 20
92.8597
 30
1489.9275
 42
0
 70
32
 0
VERTEX
 8
0
 6
CONTINUOUS
 62
 8
 10
37.5279
 20
93.8597
 30
1489.9275
 42
0
 70
32
 0
VERTEX
 8
0
 6
CONTINUOUS
 62
 8
 10
0
 20
93.8597
 30
1508
 42
0
 70
32
 0
SEQEND
 8
0
 62
 8
 0
POLYLINE
 8
0
 6
CONTINUOUS
 62
 8
 66
1
 10
0
 20
93.8597
 30
1460
 70
9
 0
VERTEX
 8
0
 6
CONTINUOUS
 62
 8
 10
37.5279
 20
92.8597
 30
1489.9275
 42
0
 70
32
 0
VERTEX
 8
0
 6
CONTINUOUS
 62
 8
 10
46.7965
 20
92.8597
 30
1449.319
 42
0
 70
32
 0
VERTEX
 8
0
 6
CONTINUOUS
 62
 8
 10
46.7965
 20
93.8597
 30
1449.319
 42
0
 70
32
 0
VERTEX
 8
0
 6
CONTINUOUS
 62
 8
 10
37.5279
 20
93.8597
 30
1489.9275
 42
0
 70
32
 0
SEQEND
 8
0
 62
 8
 0
POLYLINE
 8
0
 6
CONTINUOUS
 62
 8
 66
1
 10
0
 20
93.8597
 30
1460
 70
9
 0
VERTEX
 8
0
 6
CONTINUOUS
 62
 8
 10
46.7965
 20
92.8597
 30
1449.319
 42
0
 70
32
 0
VERTEX
 8
0
 6
CONTINUOUS
 62
 8
 10
20.8264
 20
92.8597
 30
1416.7535
 42
0
 70
32
 0
VERTEX
 8
0
 6
CONTINUOUS
 62
 8
 10
20.8264
 20
93.8597
 30
1416.7535
 42
0
 70
32
 0
VERTEX
 8
0
 6
CONTINUOUS
 62
 8
 10
46.7965
 20
93.8597
 30
1449.319
 42
0
 70
32
 0
SEQEND
 8
0
 62
 8
 0
POLYLINE
 8
0
 6
CONTINUOUS
 62
 8
 66
1
 10
0
 20
93.8597
 30
1460
 70
9
 0
VERTEX
 8
0
 6
CONTINUOUS
 62
 8
 10
20.8264
 20
92.8597
 30
1416.7535
 42
0
 70
32
 0
VERTEX
 8
0
 6
CONTINUOUS
 62
 8
 10
-20.8264
 20
92.8597
 30
1416.7535
 42
0
 70
32
 0
VERTEX
 8
0
 6
CONTINUOUS
 62
 8
 10
-20.8264
 20
93.8597
 30
1416.7535
 42
0
 70
32
 0
VERTEX
 8
0
 6
CONTINUOUS
 62
 8
 10
20.8264
 20
93.8597
 30
1416.7535
 42
0
 70
32
 0
SEQEND
 8
0
 62
 8
 0
POLYLINE
 8
0
 6
CONTINUOUS
 62
 8
 66
1
 10
-0
 20
-83.8244
 30
1460
 70
9
 0
VERTEX
 8
0
 6
CONTINUOUS
 62
 8
 10
-20.8264
 20
-83.8244
 30
1416.7535
 42
0
 70
32
 0
VERTEX
 8
0
 6
CONTINUOUS
 62
 8
 10
-46.7965
 20
-83.8244
 30
1449.319
 42
0
 70
32
 0
VERTEX
 8
0
 6
CONTINUOUS
 62
 8
 10
-37.5279
 20
-83.8244
 30
1489.9275
 42
0
 70
32
 0
VERTEX
 8
0
 6
CONTINUOUS
 62
 8
 10
-0
 20
-83.8244
 30
1508
 42
0
 70
32
 0
VERTEX
 8
0
 6
CONTINUOUS
 62
 8
 10
37.5279
 20
-83.8244
 30
1489.9275
 42
0
 70
32
 0
VERTEX
 8
0
 6
CONTINUOUS
 62
 8
 10
46.7965
 20
-83.8244
 30
1449.319
 42
0
 70
32
 0
VERTEX
 8
0
 6
CONTINUOUS
 62
 8
 10
20.8264
 20
-83.8244
 30
1416.7535
 42
0
 70
32
 0
SEQEND
 8
0
 62
 8
 0
POLYLINE
 8
0
 6
CONTINUOUS
 62
 8
 66
1
 10
-0
 20
-83.8244
 30
1460
 70
9
 0
VERTEX
 8
0
 6
CONTINUOUS
 62
 8
 10
-20.8264
 20
-84.8244
 30
1416.7535
 42
0
 70
32
 0
VERTEX
 8
0
 6
CONTINUOUS
 62
 8
 10
20.8264
 20
-84.8244
 30
1416.7535
 42
0
 70
32
 0
VERTEX
 8
0
 6
CONTINUOUS
 62
 8
 10
46.7965
 20
-84.8244
 30
1449.319
 42
0
 70
32
 0
VERTEX
 8
0
 6
CONTINUOUS
 62
 8
 10
37.5279
 20
-84.8244
 30
1489.9275
 42
0
 70
32
 0
VERTEX
 8
0
 6
CONTINUOUS
 62
 8
 10
-0
 20
-84.8244
 30
1508
 42
0
 70
32
 0
VERTEX
 8
0
 6
CONTINUOUS
 62
 8
 10
-37.5279
 20
-84.8244
 30
1489.9275
 42
0
 70
32
 0
VERTEX
 8
0
 6
CONTINUOUS
 62
 8
 10
-46.7965
 20
-84.8244
 30
1449.319
 42
0
 70
32
 0
SEQEND
 8
0
 62
 8
 0
POLYLINE
 8
0
 6
CONTINUOUS
 62
 8
 66
1
 10
-0
 20
-83.8244
 30
1460
 70
9
 0
VERTEX
 8
0
 6
CONTINUOUS
 62
 8
 10
-20.8264
 20
-84.8244
 30
1416.7535
 42
0
 70
32
 0
VERTEX
 8
0
 6
CONTINUOUS
 62
 8
 10
-46.7965
 20
-84.8244
 30
1449.319
 42
0
 70
32
 0
VERTEX
 8
0
 6
CONTINUOUS
 62
 8
 10
-46.7965
 20
-83.8244
 30
1449.319
 42
0
 70
32
 0
VERTEX
 8
0
 6
CONTINUOUS
 62
 8
 10
-20.8264
 20
-83.8244
 30
1416.7535
 42
0
 70
32
 0
SEQEND
 8
0
 62
 8
 0
POLYLINE
 8
0
 6
CONTINUOUS
 62
 8
 66
1
 10
-0
 20
-83.8244
 30
1460
 70
9
 0
VERTEX
 8
0
 6
CONTINUOUS
 62
 8
 10
-46.7965
 20
-84.8244
 30
1449.319
 42
0
 70
32
 0
VERTEX
 8
0
 6
CONTINUOUS
 62
 8
 10
-37.5279
 20
-84.8244
 30
1489.9275
 42
0
 70
32
 0
VERTEX
 8
0
 6
CONTINUOUS
 62
 8
 10
-37.5279
 20
-83.8244
 30
1489.9275
 42
0
 70
32
 0
VERTEX
 8
0
 6
CONTINUOUS
 62
 8
 10
-46.7965
 20
-83.8244
 30
1449.319
 42
0
 70
32
 0
SEQEND
 8
0
 62
 8
 0
POLYLINE
 8
0
 6
CONTINUOUS
 62
 8
 66
1
 10
-0
 20
-83.8244
 30
1460
 70
9
 0
VERTEX
 8
0
 6
CONTINUOUS
 62
 8
 10
-37.5279
 20
-84.8244
 30
1489.9275
 42
0
 70
32
 0
VERTEX
 8
0
 6
CONTINUOUS
 62
 8
 10
-0
 20
-84.8244
 30
1508
 42
0
 70
32
 0
VERTEX
 8
0
 6
CONTINUOUS
 62
 8
 10
-0
 20
-83.8244
 30
1508
 42
0
 70
32
 0
VERTEX
 8
0
 6
CONTINUOUS
 62
 8
 10
-37.5279
 20
-83.8244
 30
1489.9275
 42
0
 70
32
 0
SEQEND
 8
0
 62
 8
 0
POLYLINE
 8
0
 6
CONTINUOUS
 62
 8
 66
1
 10
-0
 20
-83.8244
 30
1460
 70
9
 0
VERTEX
 8
0
 6
CONTINUOUS
 62
 8
 10
-0
 20
-84.8244
 30
1508
 42
0
 70
32
 0
VERTEX
 8
0
 6
CONTINUOUS
 62
 8
 10
37.5279
 20
-84.8244
 30
1489.9275
 42
0
 70
32
 0
VERTEX
 8
0
 6
CONTINUOUS
 62
 8
 10
37.5279
 20
-83.8244
 30
1489.9275
 42
0
 70
32
 0
VERTEX
 8
0
 6
CONTINUOUS
 62
 8
 10
-0
 20
-83.8244
 30
1508
 42
0
 70
32
 0
SEQEND
 8
0
 62
 8
 0
POLYLINE
 8
0
 6
CONTINUOUS
 62
 8
 66
1
 10
-0
 20
-83.8244
 30
1460
 70
9
 0
VERTEX
 8
0
 6
CONTINUOUS
 62
 8
 10
37.5279
 20
-84.8244
 30
1489.9275
 42
0
 70
32
 0
VERTEX
 8
0
 6
CONTINUOUS
 62
 8
 10
46.7965
 20
-84.8244
 30
1449.319
 42
0
 70
32
 0
VERTEX
 8
0
 6
CONTINUOUS
 62
 8
 10
46.7965
 20
-83.8244
 30
1449.319
 42
0
 70
32
 0
VERTEX
 8
0
 6
CONTINUOUS
 62
 8
 10
37.5279
 20
-83.8244
 30
1489.9275
 42
0
 70
32
 0
SEQEND
 8
0
 62
 8
 0
POLYLINE
 8
0
 6
CONTINUOUS
 62
 8
 66
1
 10
-0
 20
-83.8244
 30
1460
 70
9
 0
VERTEX
 8
0
 6
CONTINUOUS
 62
 8
 10
46.7965
 20
-84.8244
 30
1449.319
 42
0
 70
32
 0
VERTEX
 8
0
 6
CONTINUOUS
 62
 8
 10
20.8264
 20
-84.8244
 30
1416.7535
 42
0
 70
32
 0
VERTEX
 8
0
 6
CONTINUOUS
 62
 8
 10
20.8264
 20
-83.8244
 30
1416.7535
 42
0
 70
32
 0
VERTEX
 8
0
 6
CONTINUOUS
 62
 8
 10
46.7965
 20
-83.8244
 30
1449.319
 42
0
 70
32
 0
SEQEND
 8
0
 62
 8
 0
POLYLINE
 8
0
 6
CONTINUOUS
 62
 8
 66
1
 10
-0
 20
-83.8244
 30
1460
 70
9
 0
VERTEX
 8
0
 6
CONTINUOUS
 62
 8
 10
20.8264
 20
-84.8244
 30
1416.7535
 42
0
 70
32
 0
VERTEX
 8
0
 6
CONTINUOUS
 62
 8
 10
-20.8264
 20
-84.8244
 30
1416.7535
 42
0
 70
32
 0
VERTEX
 8
0
 6
CONTINUOUS
 62
 8
 10
-20.8264
 20
-83.8244
 30
1416.7535
 42
0
 70
32
 0
VERTEX
 8
0
 6
CONTINUOUS
 62
 8
 10
20.8264
 20
-83.8244
 30
1416.7535
 42
0
 70
32
 0
SEQEND
 8
0
 62
 8
 0
POLYLINE
 8
0
 6
CONTINUOUS
 62
 10
 66
1
 10
203.4083
 20
-0
 30
1585.0488
 70
9
 0
VERTEX
 8
0
 6
CONTINUOUS
 62
 10
 10
203.4083
 20
45.8205
 30
1630.8693
 42
0
 70
32
 0
VERTEX
 8
0
 6
CONTINUOUS
 62
 10
 10
203.4083
 20
64.8
 30
1585.0488
 42
0
 70
32
 0
VERTEX
 8
0
 6
CONTINUOUS
 62
 10
 10
203.4083
 20
45.8205
 30
1539.2283
 42
0
 70
32
 0
VERTEX
 8
0
 6
CONTINUOUS
 62
 10
 10
203.4083
 20
-0
 30
1520.2488
 42
0
 70
32
 0
VERTEX
 8
0
 6
CONTINUOUS
 62
 10
 10
203.4083
 20
-45.8205
 30
1539.2283
 42
0
 70
32
 0
VERTEX
 8
0
 6
CONTINUOUS
 62
 10
 10
203.4083
 20
-64.8
 30
1585.0488
 42
0
 70
32
 0
VERTEX
 8
0
 6
CONTINUOUS
 62
 10
 10
203.4083
 20
-45.8205
 30
1630.8693
 42
0
 70
32
 0
VERTEX
 8
0
 6
CONTINUOUS
 62
 10
 10
203.4083
 20
-0
 30
1649.8488
 42
0
 70
32
 0
SEQEND
 8
0
 62
 10
 0
POLYLINE
 8
0
 6
CONTINUOUS
 62
 10
 66
1
 10
203.4083
 20
-0
 30
1585.0488
 70
9
 0
VERTEX
 8
0
 6
CONTINUOUS
 62
 10
 10
603.4083
 20
45.8205
 30
1630.8693
 42
0
 70
32
 0
VERTEX
 8
0
 6
CONTINUOUS
 62
 10
 10
603.4083
 20
-0
 30
1649.8488
 42
0
 70
32
 0
VERTEX
 8
0
 6
CONTINUOUS
 62
 10
 10
603.4083
 20
-45.8205
 30
1630.8693
 42
0
 70
32
 0
VERTEX
 8
0
 6
CONTINUOUS
 62
 10
 10
603.4083
 20
-64.8
 30
1585.0488
 42
0
 70
32
 0
VERTEX
 8
0
 6
CONTINUOUS
 62
 10
 10
603.4083
 20
-45.8205
 30
1539.2283
 42
0
 70
32
 0
VERTEX
 8
0
 6
CONTINUOUS
 62
 10
 10
603.4083
 20
-0
 30
1520.2488
 42
0
 70
32
 0
VERTEX
 8
0
 6
CONTINUOUS
 62
 10
 10
603.4083
 20
45.8205
 30
1539.2283
 42
0
 70
32
 0
VERTEX
 8
0
 6
CONTINUOUS
 62
 10
 10
603.4083
 20
64.8
 30
1585.0488
 42
0
 70
32
 0
SEQEND
 8
0
 62
 10
 0
POLYLINE
 8
0
 6
CONTINUOUS
 62
 10
 66
1
 10
203.4083
 20
-0
 30
1585.0488
 70
9
 0
VERTEX
 8
0
 6
CONTINUOUS
 62
 10
 10
603.4083
 20
45.8205
 30
1630.8693
 42
0
 70
32
 0
VERTEX
 8
0
 6
CONTINUOUS
 62
 10
 10
603.4083
 20
64.8
 30
1585.0488
 42
0
 70
32
 0
VERTEX
 8
0
 6
CONTINUOUS
 62
 10
 10
203.4083
 20
64.8
 30
1585.0488
 42
0
 70
32
 0
VERTEX
 8
0
 6
CONTINUOUS
 62
 10
 10
203.4083
 20
45.8205
 30
1630.8693
 42
0
 70
32
 0
SEQEND
 8
0
 62
 10
 0
POLYLINE
 8
0
 6
CONTINUOUS
 62
 10
 66
1
 10
203.4083
 20
-0
 30
1585.0488
 70
9
 0
VERTEX
 8
0
 6
CONTINUOUS
 62
 10
 10
603.4083
 20
64.8
 30
1585.0488
 42
0
 70
32
 0
VERTEX
 8
0
 6
CONTINUOUS
 62
 10
 10
603.4083
 20
45.8205
 30
1539.2283
 42
0
 70
32
 0
VERTEX
 8
0
 6
CONTINUOUS
 62
 10
 10
203.4083
 20
45.8205
 30
1539.2283
 42
0
 70
32
 0
VERTEX
 8
0
 6
CONTINUOUS
 62
 10
 10
203.4083
 20
64.8
 30
1585.0488
 42
0
 70
32
 0
SEQEND
 8
0
 62
 10
 0
POLYLINE
 8
0
 6
CONTINUOUS
 62
 10
 66
1
 10
203.4083
 20
-0
 30
1585.0488
 70
9
 0
VERTEX
 8
0
 6
CONTINUOUS
 62
 10
 10
603.4083
 20
45.8205
 30
1539.2283
 42
0
 70
32
 0
VERTEX
 8
0
 6
CONTINUOUS
 62
 10
 10
603.4083
 20
-0
 30
1520.2488
 42
0
 70
32
 0
VERTEX
 8
0
 6
CONTINUOUS
 62
 10
 10
203.4083
 20
-0
 30
1520.2488
 42
0
 70
32
 0
VERTEX
 8
0
 6
CONTINUOUS
 62
 10
 10
203.4083
 20
45.8205
 30
1539.2283
 42
0
 70
32
 0
SEQEND
 8
0
 62
 10
 0
POLYLINE
 8
0
 6
CONTINUOUS
 62
 10
 66
1
 10
203.4083
 20
-0
 30
1585.0488
 70
9
 0
VERTEX
 8
0
 6
CONTINUOUS
 62
 10
 10
603.4083
 20
-0
 30
1520.2488
 42
0
 70
32
 0
VERTEX
 8
0
 6
CONTINUOUS
 62
 10
 10
603.4083
 20
-45.8205
 30
1539.2283
 42
0
 70
32
 0
VERTEX
 8
0
 6
CONTINUOUS
 62
 10
 10
203.4083
 20
-45.8205
 30
1539.2283
 42
0
 70
32
 0
VERTEX
 8
0
 6
CONTINUOUS
 62
 10
 10
203.4083
 20
-0
 30
1520.2488
 42
0
 70
32
 0
SEQEND
 8
0
 62
 10
 0
POLYLINE
 8
0
 6
CONTINUOUS
 62
 10
 66
1
 10
203.4083
 20
-0
 30
1585.0488
 70
9
 0
VERTEX
 8
0
 6
CONTINUOUS
 62
 10
 10
603.4083
 20
-45.8205
 30
1539.2283
 42
0
 70
32
 0
VERTEX
 8
0
 6
CONTINUOUS
 62
 10
 10
603.4083
 20
-64.8
 30
1585.0488
 42
0
 70
32
 0
VERTEX
 8
0
 6
CONTINUOUS
 62
 10
 10
203.4083
 20
-64.8
 30
1585.0488
 42
0
 70
32
 0
VERTEX
 8
0
 6
CONTINUOUS
 62
 10
 10
203.4083
 20
-45.8205
 30
1539.2283
 42
0
 70
32
 0
SEQEND
 8
0
 62
 10
 0
POLYLINE
 8
0
 6
CONTINUOUS
 62
 10
 66
1
 10
203.4083
 20
-0
 30
1585.0488
 70
9
 0
VERTEX
 8
0
 6
CONTINUOUS
 62
 10
 10
603.4083
 20
-64.8
 30
1585.0488
 42
0
 70
32
 0
VERTEX
 8
0
 6
CONTINUOUS
 62
 10
 10
603.4083
 20
-45.8205
 30
1630.8693
 42
0
 70
32
 0
VERTEX
 8
0
 6
CONTINUOUS
 62
 10
 10
203.4083
 20
-45.8205
 30
1630.8693
 42
0
 70
32
 0
VERTEX
 8
0
 6
CONTINUOUS
 62
 10
 10
203.4083
 20
-64.8
 30
1585.0488
 42
0
 70
32
 0
SEQEND
 8
0
 62
 10
 0
POLYLINE
 8
0
 6
CONTINUOUS
 62
 10
 66
1
 10
203.4083
 20
-0
 30
1585.0488
 70
9
 0
VERTEX
 8
0
 6
CONTINUOUS
 62
 10
 10
603.4083
 20
-45.8205
 30
1630.8693
 42
0
 70
32
 0
VERTEX
 8
0
 6
CONTINUOUS
 62
 10
 10
603.4083
 20
-0
 30
1649.8488
 42
0
 70
32
 0
VERTEX
 8
0
 6
CONTINUOUS
 62
 10
 10
203.4083
 20
-0
 30
1649.8488
 42
0
 70
32
 0
VERTEX
 8
0
 6
CONTINUOUS
 62
 10
 10
203.4083
 20
-45.8205
 30
1630.8693
 42
0
 70
32
 0
SEQEND
 8
0
 62
 10
 0
POLYLINE
 8
0
 6
CONTINUOUS
 62
 10
 66
1
 10
203.4083
 20
-0
 30
1585.0488
 70
9
 0
VERTEX
 8
0
 6
CONTINUOUS
 62
 10
 10
603.4083
 20
-0
 30
1649.8488
 42
0
 70
32
 0
VERTEX
 8
0
 6
CONTINUOUS
 62
 10
 10
603.4083
 20
45.8205
 30
1630.8693
 42
0
 70
32
 0
VERTEX
 8
0
 6
CONTINUOUS
 62
 10
 10
203.4083
 20
45.8205
 30
1630.8693
 42
0
 70
32
 0
VERTEX
 8
0
 6
CONTINUOUS
 62
 10
 10
203.4083
 20
-0
 30
1649.8488
 42
0
 70
32
 0
SEQEND
 8
0
 62
 10
 0
POLYLINE
 8
0
 6
CONTINUOUS
 62
 10
 66
1
 10
-186.6902
 20
-49.5871
 30
731.9264
 70
9
 0
VERTEX
 8
0
 6
CONTINUOUS
 62
 10
 10
-236.6902
 20
-69.5871
 30
731.9264
 42
0
 70
32
 0
VERTEX
 8
0
 6
CONTINUOUS
 62
 10
 10
-236.6902
 20
-29.5871
 30
731.9264
 42
0
 70
32
 0
VERTEX
 8
0
 6
CONTINUOUS
 62
 10
 10
-136.6902
 20
-29.5871
 30
731.9264
 42
0
 70
32
 0
VERTEX
 8
0
 6
CONTINUOUS
 62
 10
 10
-136.6902
 20
-69.5871
 30
731.9264
 42
0
 70
32
 0
SEQEND
 8
0
 62
 10
 0
POLYLINE
 8
0
 6
CONTINUOUS
 62
 10
 66
1
 10
-186.6902
 20
-49.5871
 30
731.9264
 70
9
 0
VERTEX
 8
0
 6
CONTINUOUS
 62
 10
 10
-236.6902
 20
-69.5871
 30
771.9264
 42
0
 70
32
 0
VERTEX
 8
0
 6
CONTINUOUS
 62
 10
 10
-136.6902
 20
-69.5871
 30
771.9264
 42
0
 70
32
 0
VERTEX
 8
0
 6
CONTINUOUS
 62
 10
 10
-136.6902
 20
-29.5871
 30
771.9264
 42
0
 70
32
 0
VERTEX
 8
0
 6
CONTINUOUS
 62
 10
 10
-236.6902
 20
-29.5871
 30
771.9264
 42
0
 70
32
 0
SEQEND
 8
0
 62
 10
 0
POLYLINE
 8
0
 6
CONTINUOUS
 62
 10
 66
1
 10
-186.6902
 20
-49.5871
 30
731.9264
 70
9
 0
VERTEX
 8
0
 6
CONTINUOUS
 62
 10
 10
-236.6902
 20
-69.5871
 30
771.9264
 42
0
 70
32
 0
VERTEX
 8
0
 6
CONTINUOUS
 62
 10
 10
-236.6902
 20
-29.5871
 30
771.9264
 42
0
 70
32
 0
VERTEX
 8
0
 6
CONTINUOUS
 62
 10
 10
-236.6902
 20
-29.5871
 30
731.9264
 42
0
 70
32
 0
VERTEX
 8
0
 6
CONTINUOUS
 62
 10
 10
-236.6902
 20
-69.5871
 30
731.9264
 42
0
 70
32
 0
SEQEND
 8
0
 62
 10
 0
POLYLINE
 8
0
 6
CONTINUOUS
 62
 10
 66
1
 10
-186.6902
 20
-49.5871
 30
731.9264
 70
9
 0
VERTEX
 8
0
 6
CONTINUOUS
 62
 10
 10
-236.6902
 20
-29.5871
 30
771.9264
 42
0
 70
32
 0
VERTEX
 8
0
 6
CONTINUOUS
 62
 10
 10
-136.6902
 20
-29.5871
 30
771.9264
 42
0
 70
32
 0
VERTEX
 8
0
 6
CONTINUOUS
 62
 10
 10
-136.6902
 20
-29.5871
 30
731.9264
 42
0
 70
32
 0
VERTEX
 8
0
 6
CONTINUOUS
 62
 10
 10
-236.6902
 20
-29.5871
 30
731.9264
 42
0
 70
32
 0
SEQEND
 8
0
 62
 10
 0
POLYLINE
 8
0
 6
CONTINUOUS
 62
 10
 66
1
 10
-186.6902
 20
-49.5871
 30
731.9264
 70
9
 0
VERTEX
 8
0
 6
CONTINUOUS
 62
 10
 10
-136.6902
 20
-29.5871
 30
771.9264
 42
0
 70
32
 0
VERTEX
 8
0
 6
CONTINUOUS
 62
 10
 10
-136.6902
 20
-69.5871
 30
771.9264
 42
0
 70
32
 0
VERTEX
 8
0
 6
CONTINUOUS
 62
 10
 10
-136.6902
 20
-69.5871
 30
731.9264
 42
0
 70
32
 0
VERTEX
 8
0
 6
CONTINUOUS
 62
 10
 10
-136.6902
 20
-29.5871
 30
731.9264
 42
0
 70
32
 0
SEQEND
 8
0
 62
 10
 0
POLYLINE
 8
0
 6
CONTINUOUS
 62
 10
 66
1
 10
-186.6902
 20
-49.5871
 30
731.9264
 70
9
 0
VERTEX
 8
0
 6
CONTINUOUS
 62
 10
 10
-136.6902
 20
-69.5871
 30
771.9264
 42
0
 70
32
 0
VERTEX
 8
0
 6
CONTINUOUS
 62
 10
 10
-236.6902
 20
-69.5871
 30
771.9264
 42
0
 70
32
 0
VERTEX
 8
0
 6
CONTINUOUS
 62
 10
 10
-236.6902
 20
-69.5871
 30
731.9264
 42
0
 70
32
 0
VERTEX
 8
0
 6
CONTINUOUS
 62
 10
 10
-136.6902
 20
-69.5871
 30
731.9264
 42
0
 70
32
 0
SEQEND
 8
0
 62
 10
 0
POLYLINE
 8
0
 6
CONTINUOUS
 62
 10
 66
1
 10
-214.8489
 20
-2.3604
 30
731.8995
 70
9
 0
VERTEX
 8
0
 6
CONTINUOUS
 62
 10
 10
-234.8489
 20
-22.3604
 30
731.8995
 42
0
 70
32
 0
VERTEX
 8
0
 6
CONTINUOUS
 62
 10
 10
-234.8489
 20
17.6396
 30
731.8995
 42
0
 70
32
 0
VERTEX
 8
0
 6
CONTINUOUS
 62
 10
 10
-194.8489
 20
17.6396
 30
731.8995
 42
0
 70
32
 0
VERTEX
 8
0
 6
CONTINUOUS
 62
 10
 10
-194.8489
 20
-22.3604
 30
731.8995
 42
0
 70
32
 0
SEQEND
 8
0
 62
 10
 0
POLYLINE
 8
0
 6
CONTINUOUS
 62
 10
 66
1
 10
-214.8489
 20
-2.3604
 30
731.8995
 70
9
 0
VERTEX
 8
0
 6
CONTINUOUS
 62
 10
 10
-234.8489
 20
-22.3604
 30
1511.8995
 42
0
 70
32
 0
VERTEX
 8
0
 6
CONTINUOUS
 62
 10
 10
-194.8489
 20
-22.3604
 30
1511.8995
 42
0
 70
32
 0
VERTEX
 8
0
 6
CONTINUOUS
 62
 10
 10
-194.8489
 20
17.6396
 30
1511.8995
 42
0
 70
32
 0
VERTEX
 8
0
 6
CONTINUOUS
 62
 10
 10
-234.8489
 20
17.6396
 30
1511.8995
 42
0
 70
32
 0
SEQEND
 8
0
 62
 10
 0
POLYLINE
 8
0
 6
CONTINUOUS
 62
 10
 66
1
 10
-214.8489
 20
-2.3604
 30
731.8995
 70
9
 0
VERTEX
 8
0
 6
CONTINUOUS
 62
 10
 10
-234.8489
 20
-22.3604
 30
1511.8995
 42
0
 70
32
 0
VERTEX
 8
0
 6
CONTINUOUS
 62
 10
 10
-234.8489
 20
17.6396
 30
1511.8995
 42
0
 70
32
 0
VERTEX
 8
0
 6
CONTINUOUS
 62
 10
 10
-234.8489
 20
17.6396
 30
731.8995
 42
0
 70
32
 0
VERTEX
 8
0
 6
CONTINUOUS
 62
 10
 10
-234.8489
 20
-22.3604
 30
731.8995
 42
0
 70
32
 0
SEQEND
 8
0
 62
 10
 0
POLYLINE
 8
0
 6
CONTINUOUS
 62
 10
 66
1
 10
-214.8489
 20
-2.3604
 30
731.8995
 70
9
 0
VERTEX
 8
0
 6
CONTINUOUS
 62
 10
 10
-234.8489
 20
17.6396
 30
1511.8995
 42
0
 70
32
 0
VERTEX
 8
0
 6
CONTINUOUS
 62
 10
 10
-194.8489
 20
17.6396
 30
1511.8995
 42
0
 70
32
 0
VERTEX
 8
0
 6
CONTINUOUS
 62
 10
 10
-194.8489
 20
17.6396
 30
731.8995
 42
0
 70
32
 0
VERTEX
 8
0
 6
CONTINUOUS
 62
 10
 10
-234.8489
 20
17.6396
 30
731.8995
 42
0
 70
32
 0
SEQEND
 8
0
 62
 10
 0
POLYLINE
 8
0
 6
CONTINUOUS
 62
 10
 66
1
 10
-214.8489
 20
-2.3604
 30
731.8995
 70
9
 0
VERTEX
 8
0
 6
CONTINUOUS
 62
 10
 10
-194.8489
 20
17.6396
 30
1511.8995
 42
0
 70
32
 0
VERTEX
 8
0
 6
CONTINUOUS
 62
 10
 10
-194.8489
 20
-22.3604
 30
1511.8995
 42
0
 70
32
 0
VERTEX
 8
0
 6
CONTINUOUS
 62
 10
 10
-194.8489
 20
-22.3604
 30
731.8995
 42
0
 70
32
 0
VERTEX
 8
0
 6
CONTINUOUS
 62
 10
 10
-194.8489
 20
17.6396
 30
731.8995
 42
0
 70
32
 0
SEQEND
 8
0
 62
 10
 0
POLYLINE
 8
0
 6
CONTINUOUS
 62
 10
 66
1
 10
-214.8489
 20
-2.3604
 30
731.8995
 70
9
 0
VERTEX
 8
0
 6
CONTINUOUS
 62
 10
 10
-194.8489
 20
-22.3604
 30
1511.8995
 42
0
 70
32
 0
VERTEX
 8
0
 6
CONTINUOUS
 62
 10
 10
-234.8489
 20
-22.3604
 30
1511.8995
 42
0
 70
32
 0
VERTEX
 8
0
 6
CONTINUOUS
 62
 10
 10
-234.8489
 20
-22.3604
 30
731.8995
 42
0
 70
32
 0
VERTEX
 8
0
 6
CONTINUOUS
 62
 10
 10
-194.8489
 20
-22.3604
 30
731.8995
 42
0
 70
32
 0
SEQEND
 8
0
 62
 10
 0
POLYLINE
 8
0
 6
CONTINUOUS
 62
 10
 66
1
 10
-143.1551
 20
224.0133
 30
328.631
 70
9
 0
VERTEX
 8
0
 6
CONTINUOUS
 62
 10
 10
163.4298
 20
224.0133
 30
328.631
 42
0
 70
32
 0
VERTEX
 8
0
 6
CONTINUOUS
 62
 10
 10
-143.1551
 20
224.0133
 30
328.631
 42
0
 70
32
 0
VERTEX
 8
0
 6
CONTINUOUS
 62
 10
 10
-171.5277
 20
224.0133
 30
338.304
 42
0
 70
32
 0
VERTEX
 8
0
 6
CONTINUOUS
 62
 10
 10
-191.0967
 20
224.0133
 30
361.0114
 42
0
 70
32
 0
VERTEX
 8
0
 6
CONTINUOUS
 62
 10
 10
-196.4742
 20
224.0133
 30
390.5013
 42
0
 70
32
 0
VERTEX
 8
0
 6
CONTINUOUS
 62
 10
 10
-147.5984
 20
224.0133
 30
757.4564
 42
0
 70
32
 0
VERTEX
 8
0
 6
CONTINUOUS
 62
 10
 10
-108.6891
 20
224.0133
 30
834.0551
 42
0
 70
32
 0
VERTEX
 8
0
 6
CONTINUOUS
 62
 10
 10
-35.3081
 20
224.0133
 30
878.7375
 42
0
 70
32
 0
VERTEX
 8
0
 6
CONTINUOUS
 62
 10
 10
50.6043
 20
224.0133
 30
878.144
 42
0
 70
32
 0
VERTEX
 8
0
 6
CONTINUOUS
 62
 10
 10
123.361
 20
224.0133
 30
832.4519
 42
0
 70
32
 0
VERTEX
 8
0
 6
CONTINUOUS
 62
 10
 10
161.2082
 20
224.0133
 30
755.3229
 42
0
 70
32
 0
VERTEX
 8
0
 6
CONTINUOUS
 62
 10
 10
212.3057
 20
224.0133
 30
388.3678
 42
0
 70
32
 0
VERTEX
 8
0
 6
CONTINUOUS
 62
 10
 10
209.5342
 20
224.0133
 30
359.5046
 42
0
 70
32
 0
VERTEX
 8
0
 6
CONTINUOUS
 62
 10
 10
191.1728
 20
224.0133
 30
337.0629
 42
0
 70
32
 0
SEQEND
 8
0
 62
 10
 0
POLYLINE
 8
0
 6
CONTINUOUS
 62
 10
 66
1
 10
-143.1551
 20
224.0133
 30
328.631
 70
9
 0
VERTEX
 8
0
 6
CONTINUOUS
 62
 10
 10
-147.5984
 20
124.0133
 30
757.4564
 42
0
 70
32
 0
VERTEX
 8
0
 6
CONTINUOUS
 62
 10
 10
-196.4742
 20
124.0133
 30
390.5013
 42
0
 70
32
 0
VERTEX
 8
0
 6
CONTINUOUS
 62
 10
 10
-191.0967
 20
124.0133
 30
361.0114
 42
0
 70
32
 0
VERTEX
 8
0
 6
CONTINUOUS
 62
 10
 10
-171.5277
 20
124.0133
 30
338.304
 42
0
 70
32
 0
VERTEX
 8
0
 6
CONTINUOUS
 62
 10
 10
-143.1551
 20
124.0133
 30
328.631
 42
0
 70
32
 0
VERTEX
 8
0
 6
CONTINUOUS
 62
 10
 10
163.4298
 20
124.0133
 30
328.631
 42
0
 70
32
 0
VERTEX
 8
0
 6
CONTINUOUS
 62
 10
 10
191.1728
 20
124.0133
 30
337.0629
 42
0
 70
32
 0
VERTEX
 8
0
 6
CONTINUOUS
 62
 10
 10
209.5342
 20
124.0133
 30
359.5046
 42
0
 70
32
 0
VERTEX
 8
0
 6
CONTINUOUS
 62
 10
 10
212.3057
 20
124.0133
 30
388.3678
 42
0
 70
32
 0
VERTEX
 8
0
 6
CONTINUOUS
 62
 10
 10
161.2082
 20
124.0133
 30
755.3229
 42
0
 70
32
 0
VERTEX
 8
0
 6
CONTINUOUS
 62
 10
 10
123.361
 20
124.0133
 30
832.4519
 42
0
 70
32
 0
VERTEX
 8
0
 6
CONTINUOUS
 62
 10
 10
50.6043
 20
124.0133
 30
878.144
 42
0
 70
32
 0
VERTEX
 8
0
 6
CONTINUOUS
 62
 10
 10
-35.3081
 20
124.0133
 30
878.7375
 42
0
 70
32
 0
VERTEX
 8
0
 6
CONTINUOUS
 62
 10
 10
-108.6891
 20
124.0133
 30
834.0551
 42
0
 70
32
 0
SEQEND
 8
0
 62
 10
 0
POLYLINE
 8
0
 6
CONTINUOUS
 62
 10
 66
1
 10
-143.1551
 20
224.0133
 30
328.631
 70
9
 0
VERTEX
 8
0
 6
CONTINUOUS
 62
 10
 10
163.4298
 20
124.0133
 30
328.631
 42
0
 70
32
 0
VERTEX
 8
0
 6
CONTINUOUS
 62
 10
 10
-143.1551
 20
124.0133
 30
328.631
 42
0
 70
32
 0
VERTEX
 8
0
 6
CONTINUOUS
 62
 10
 10
-143.1551
 20
224.0133
 30
328.631
 42
0
 70
32
 0
VERTEX
 8
0
 6
CONTINUOUS
 62
 10
 10
163.4298
 20
224.0133
 30
328.631
 42
0
 70
32
 0
SEQEND
 8
0
 62
 10
 0
POLYLINE
 8
0
 6
CONTINUOUS
 62
 10
 66
1
 10
-143.1551
 20
224.0133
 30
328.631
 70
9
 0
VERTEX
 8
0
 6
CONTINUOUS
 62
 10
 10
-143.1551
 20
124.0133
 30
328.631
 42
0
 70
32
 0
VERTEX
 8
0
 6
CONTINUOUS
 62
 10
 10
-171.5277
 20
124.0133
 30
338.304
 42
0
 70
32
 0
VERTEX
 8
0
 6
CONTINUOUS
 62
 10
 10
-171.5277
 20
224.0133
 30
338.304
 42
0
 70
32
 0
VERTEX
 8
0
 6
CONTINUOUS
 62
 10
 10
-143.1551
 20
224.0133
 30
328.631
 42
0
 70
32
 0
SEQEND
 8
0
 62
 10
 0
POLYLINE
 8
0
 6
CONTINUOUS
 62
 10
 66
1
 10
-143.1551
 20
224.0133
 30
328.631
 70
9
 0
VERTEX
 8
0
 6
CONTINUOUS
 62
 10
 10
-171.5277
 20
124.0133
 30
338.304
 42
0
 70
32
 0
VERTEX
 8
0
 6
CONTINUOUS
 62
 10
 10
-191.0967
 20
124.0133
 30
361.0114
 42
0
 70
32
 0
VERTEX
 8
0
 6
CONTINUOUS
 62
 10
 10
-191.0967
 20
224.0133
 30
361.0114
 42
0
 70
32
 0
VERTEX
 8
0
 6
CONTINUOUS
 62
 10
 10
-171.5277
 20
224.0133
 30
338.304
 42
0
 70
32
 0
SEQEND
 8
0
 62
 10
 0
POLYLINE
 8
0
 6
CONTINUOUS
 62
 10
 66
1
 10
-143.1551
 20
224.0133
 30
328.631
 70
9
 0
VERTEX
 8
0
 6
CONTINUOUS
 62
 10
 10
-191.0967
 20
124.0133
 30
361.0114
 42
0
 70
32
 0
VERTEX
 8
0
 6
CONTINUOUS
 62
 10
 10
-196.4742
 20
124.0133
 30
390.5013
 42
0
 70
32
 0
VERTEX
 8
0
 6
CONTINUOUS
 62
 10
 10
-196.4742
 20
224.0133
 30
390.5013
 42
0
 70
32
 0
VERTEX
 8
0
 6
CONTINUOUS
 62
 10
 10
-191.0967
 20
224.0133
 30
361.0114
 42
0
 70
32
 0
SEQEND
 8
0
 62
 10
 0
POLYLINE
 8
0
 6
CONTINUOUS
 62
 10
 66
1
 10
-143.1551
 20
224.0133
 30
328.631
 70
9
 0
VERTEX
 8
0
 6
CONTINUOUS
 62
 10
 10
-196.4742
 20
124.0133
 30
390.5013
 42
0
 70
32
 0
VERTEX
 8
0
 6
CONTINUOUS
 62
 10
 10
-147.5984
 20
124.0133
 30
757.4564
 42
0
 70
32
 0
VERTEX
 8
0
 6
CONTINUOUS
 62
 10
 10
-147.5984
 20
224.0133
 30
757.4564
 42
0
 70
32
 0
VERTEX
 8
0
 6
CONTINUOUS
 62
 10
 10
-196.4742
 20
224.0133
 30
390.5013
 42
0
 70
32
 0
SEQEND
 8
0
 62
 10
 0
POLYLINE
 8
0
 6
CONTINUOUS
 62
 10
 66
1
 10
-143.1551
 20
224.0133
 30
328.631
 70
9
 0
VERTEX
 8
0
 6
CONTINUOUS
 62
 10
 10
-147.5984
 20
124.0133
 30
757.4564
 42
0
 70
32
 0
VERTEX
 8
0
 6
CONTINUOUS
 62
 10
 10
-108.6891
 20
124.0133
 30
834.0551
 42
0
 70
32
 0
VERTEX
 8
0
 6
CONTINUOUS
 62
 10
 10
-108.6891
 20
224.0133
 30
834.0551
 42
0
 70
32
 0
VERTEX
 8
0
 6
CONTINUOUS
 62
 10
 10
-147.5984
 20
224.0133
 30
757.4564
 42
0
 70
32
 0
SEQEND
 8
0
 62
 10
 0
POLYLINE
 8
0
 6
CONTINUOUS
 62
 10
 66
1
 10
-143.1551
 20
224.0133
 30
328.631
 70
9
 0
VERTEX
 8
0
 6
CONTINUOUS
 62
 10
 10
-108.6891
 20
124.0133
 30
834.0551
 42
0
 70
32
 0
VERTEX
 8
0
 6
CONTINUOUS
 62
 10
 10
-35.3081
 20
124.0133
 30
878.7375
 42
0
 70
32
 0
VERTEX
 8
0
 6
CONTINUOUS
 62
 10
 10
-35.3081
 20
224.0133
 30
878.7375
 42
0
 70
32
 0
VERTEX
 8
0
 6
CONTINUOUS
 62
 10
 10
-108.6891
 20
224.0133
 30
834.0551
 42
0
 70
32
 0
SEQEND
 8
0
 62
 10
 0
POLYLINE
 8
0
 6
CONTINUOUS
 62
 10
 66
1
 10
-143.1551
 20
224.0133
 30
328.631
 70
9
 0
VERTEX
 8
0
 6
CONTINUOUS
 62
 10
 10
-35.3081
 20
124.0133
 30
878.7375
 42
0
 70
32
 0
VERTEX
 8
0
 6
CONTINUOUS
 62
 10
 10
50.6043
 20
124.0133
 30
878.144
 42
0
 70
32
 0
VERTEX
 8
0
 6
CONTINUOUS
 62
 10
 10
50.6043
 20
224.0133
 30
878.144
 42
0
 70
32
 0
VERTEX
 8
0
 6
CONTINUOUS
 62
 10
 10
-35.3081
 20
224.0133
 30
878.7375
 42
0
 70
32
 0
SEQEND
 8
0
 62
 10
 0
POLYLINE
 8
0
 6
CONTINUOUS
 62
 10
 66
1
 10
-143.1551
 20
224.0133
 30
328.631
 70
9
 0
VERTEX
 8
0
 6
CONTINUOUS
 62
 10
 10
50.6043
 20
124.0133
 30
878.144
 42
0
 70
32
 0
VERTEX
 8
0
 6
CONTINUOUS
 62
 10
 10
123.361
 20
124.0133
 30
832.4519
 42
0
 70
32
 0
VERTEX
 8
0
 6
CONTINUOUS
 62
 10
 10
123.361
 20
224.0133
 30
832.4519
 42
0
 70
32
 0
VERTEX
 8
0
 6
CONTINUOUS
 62
 10
 10
50.6043
 20
224.0133
 30
878.144
 42
0
 70
32
 0
SEQEND
 8
0
 62
 10
 0
POLYLINE
 8
0
 6
CONTINUOUS
 62
 10
 66
1
 10
-143.1551
 20
224.0133
 30
328.631
 70
9
 0
VERTEX
 8
0
 6
CONTINUOUS
 62
 10
 10
123.361
 20
124.0133
 30
832.4519
 42
0
 70
32
 0
VERTEX
 8
0
 6
CONTINUOUS
 62
 10
 10
161.2082
 20
124.0133
 30
755.3229
 42
0
 70
32
 0
VERTEX
 8
0
 6
CONTINUOUS
 62
 10
 10
161.2082
 20
224.0133
 30
755.3229
 42
0
 70
32
 0
VERTEX
 8
0
 6
CONTINUOUS
 62
 10
 10
123.361
 20
224.0133
 30
832.4519
 42
0
 70
32
 0
SEQEND
 8
0
 62
 10
 0
POLYLINE
 8
0
 6
CONTINUOUS
 62
 10
 66
1
 10
-143.1551
 20
224.0133
 30
328.631
 70
9
 0
VERTEX
 8
0
 6
CONTINUOUS
 62
 10
 10
161.2082
 20
124.0133
 30
755.3229
 42
0
 70
32
 0
VERTEX
 8
0
 6
CONTINUOUS
 62
 10
 10
212.3057
 20
124.0133
 30
388.3678
 42
0
 70
32
 0
VERTEX
 8
0
 6
CONTINUOUS
 62
 10
 10
212.3057
 20
224.0133
 30
388.3678
 42
0
 70
32
 0
VERTEX
 8
0
 6
CONTINUOUS
 62
 10
 10
161.2082
 20
224.0133
 30
755.3229
 42
0
 70
32
 0
SEQEND
 8
0
 62
 10
 0
POLYLINE
 8
0
 6
CONTINUOUS
 62
 10
 66
1
 10
-143.1551
 20
224.0133
 30
328.631
 70
9
 0
VERTEX
 8
0
 6
CONTINUOUS
 62
 10
 10
212.3057
 20
124.0133
 30
388.3678
 42
0
 70
32
 0
VERTEX
 8
0
 6
CONTINUOUS
 62
 10
 10
209.5342
 20
124.0133
 30
359.5046
 42
0
 70
32
 0
VERTEX
 8
0
 6
CONTINUOUS
 62
 10
 10
209.5342
 20
224.0133
 30
359.5046
 42
0
 70
32
 0
VERTEX
 8
0
 6
CONTINUOUS
 62
 10
 10
212.3057
 20
224.0133
 30
388.3678
 42
0
 70
32
 0
SEQEND
 8
0
 62
 10
 0
POLYLINE
 8
0
 6
CONTINUOUS
 62
 10
 66
1
 10
-143.1551
 20
224.0133
 30
328.631
 70
9
 0
VERTEX
 8
0
 6
CONTINUOUS
 62
 10
 10
209.5342
 20
124.0133
 30
359.5046
 42
0
 70
32
 0
VERTEX
 8
0
 6
CONTINUOUS
 62
 10
 10
191.1728
 20
124.0133
 30
337.0629
 42
0
 70
32
 0
VERTEX
 8
0
 6
CONTINUOUS
 62
 10
 10
191.1728
 20
224.0133
 30
337.0629
 42
0
 70
32
 0
VERTEX
 8
0
 6
CONTINUOUS
 62
 10
 10
209.5342
 20
224.0133
 30
359.5046
 42
0
 70
32
 0
SEQEND
 8
0
 62
 10
 0
POLYLINE
 8
0
 6
CONTINUOUS
 62
 10
 66
1
 10
-143.1551
 20
224.0133
 30
328.631
 70
9
 0
VERTEX
 8
0
 6
CONTINUOUS
 62
 10
 10
191.1728
 20
124.0133
 30
337.0629
 42
0
 70
32
 0
VERTEX
 8
0
 6
CONTINUOUS
 62
 10
 10
163.4298
 20
124.0133
 30
328.631
 42
0
 70
32
 0
VERTEX
 8
0
 6
CONTINUOUS
 62
 10
 10
163.4298
 20
224.0133
 30
328.631
 42
0
 70
32
 0
VERTEX
 8
0
 6
CONTINUOUS
 62
 10
 10
191.1728
 20
224.0133
 30
337.0629
 42
0
 70
32
 0
SEQEND
 8
0
 62
 10
 0
POLYLINE
 8
0
 6
CONTINUOUS
 62
 10
 66
1
 10
-143.1551
 20
-117.3403
 30
328.631
 70
9
 0
VERTEX
 8
0
 6
CONTINUOUS
 62
 10
 10
163.4298
 20
-117.3403
 30
328.631
 42
0
 70
32
 0
VERTEX
 8
0
 6
CONTINUOUS
 62
 10
 10
-143.1551
 20
-117.3403
 30
328.631
 42
0
 70
32
 0
VERTEX
 8
0
 6
CONTINUOUS
 62
 10
 10
-171.5277
 20
-117.3403
 30
338.304
 42
0
 70
32
 0
VERTEX
 8
0
 6
CONTINUOUS
 62
 10
 10
-191.0967
 20
-117.3403
 30
361.0114
 42
0
 70
32
 0
VERTEX
 8
0
 6
CONTINUOUS
 62
 10
 10
-196.4742
 20
-117.3403
 30
390.5013
 42
0
 70
32
 0
VERTEX
 8
0
 6
CONTINUOUS
 62
 10
 10
-147.5984
 20
-117.3403
 30
757.4564
 42
0
 70
32
 0
VERTEX
 8
0
 6
CONTINUOUS
 62
 10
 10
-108.6891
 20
-117.3403
 30
834.0551
 42
0
 70
32
 0
VERTEX
 8
0
 6
CONTINUOUS
 62
 10
 10
-35.3081
 20
-117.3403
 30
878.7375
 42
0
 70
32
 0
VERTEX
 8
0
 6
CONTINUOUS
 62
 10
 10
50.6043
 20
-117.3403
 30
878.144
 42
0
 70
32
 0
VERTEX
 8
0
 6
CONTINUOUS
 62
 10
 10
123.361
 20
-117.3403
 30
832.4519
 42
0
 70
32
 0
VERTEX
 8
0
 6
CONTINUOUS
 62
 10
 10
161.2082
 20
-117.3403
 30
755.3229
 42
0
 70
32
 0
VERTEX
 8
0
 6
CONTINUOUS
 62
 10
 10
212.3057
 20
-117.3403
 30
388.3678
 42
0
 70
32
 0
VERTEX
 8
0
 6
CONTINUOUS
 62
 10
 10
209.5342
 20
-117.3403
 30
359.5046
 42
0
 70
32
 0
VERTEX
 8
0
 6
CONTINUOUS
 62
 10
 10
191.1728
 20
-117.3403
 30
337.0629
 42
0
 70
32
 0
SEQEND
 8
0
 62
 10
 0
POLYLINE
 8
0
 6
CONTINUOUS
 62
 10
 66
1
 10
-143.1551
 20
-117.3403
 30
328.631
 70
9
 0
VERTEX
 8
0
 6
CONTINUOUS
 62
 10
 10
-147.5984
 20
-217.3403
 30
757.4564
 42
0
 70
32
 0
VERTEX
 8
0
 6
CONTINUOUS
 62
 10
 10
-196.4742
 20
-217.3403
 30
390.5013
 42
0
 70
32
 0
VERTEX
 8
0
 6
CONTINUOUS
 62
 10
 10
-191.0967
 20
-217.3403
 30
361.0114
 42
0
 70
32
 0
VERTEX
 8
0
 6
CONTINUOUS
 62
 10
 10
-171.5277
 20
-217.3403
 30
338.304
 42
0
 70
32
 0
VERTEX
 8
0
 6
CONTINUOUS
 62
 10
 10
-143.1551
 20
-217.3403
 30
328.631
 42
0
 70
32
 0
VERTEX
 8
0
 6
CONTINUOUS
 62
 10
 10
163.4298
 20
-217.3403
 30
328.631
 42
0
 70
32
 0
VERTEX
 8
0
 6
CONTINUOUS
 62
 10
 10
191.1728
 20
-217.3403
 30
337.0629
 42
0
 70
32
 0
VERTEX
 8
0
 6
CONTINUOUS
 62
 10
 10
209.5342
 20
-217.3403
 30
359.5046
 42
0
 70
32
 0
VERTEX
 8
0
 6
CONTINUOUS
 62
 10
 10
212.3057
 20
-217.3403
 30
388.3678
 42
0
 70
32
 0
VERTEX
 8
0
 6
CONTINUOUS
 62
 10
 10
161.2082
 20
-217.3403
 30
755.3229
 42
0
 70
32
 0
VERTEX
 8
0
 6
CONTINUOUS
 62
 10
 10
123.361
 20
-217.3403
 30
832.4519
 42
0
 70
32
 0
VERTEX
 8
0
 6
CONTINUOUS
 62
 10
 10
50.6043
 20
-217.3403
 30
878.144
 42
0
 70
32
 0
VERTEX
 8
0
 6
CONTINUOUS
 62
 10
 10
-35.3081
 20
-217.3403
 30
878.7375
 42
0
 70
32
 0
VERTEX
 8
0
 6
CONTINUOUS
 62
 10
 10
-108.6891
 20
-217.3403
 30
834.0551
 42
0
 70
32
 0
SEQEND
 8
0
 62
 10
 0
POLYLINE
 8
0
 6
CONTINUOUS
 62
 10
 66
1
 10
-143.1551
 20
-117.3403
 30
328.631
 70
9
 0
VERTEX
 8
0
 6
CONTINUOUS
 62
 10
 10
163.4298
 20
-217.3403
 30
328.631
 42
0
 70
32
 0
VERTEX
 8
0
 6
CONTINUOUS
 62
 10
 10
-143.1551
 20
-217.3403
 30
328.631
 42
0
 70
32
 0
VERTEX
 8
0
 6
CONTINUOUS
 62
 10
 10
-143.1551
 20
-117.3403
 30
328.631
 42
0
 70
32
 0
VERTEX
 8
0
 6
CONTINUOUS
 62
 10
 10
163.4298
 20
-117.3403
 30
328.631
 42
0
 70
32
 0
SEQEND
 8
0
 62
 10
 0
POLYLINE
 8
0
 6
CONTINUOUS
 62
 10
 66
1
 10
-143.1551
 20
-117.3403
 30
328.631
 70
9
 0
VERTEX
 8
0
 6
CONTINUOUS
 62
 10
 10
-143.1551
 20
-217.3403
 30
328.631
 42
0
 70
32
 0
VERTEX
 8
0
 6
CONTINUOUS
 62
 10
 10
-171.5277
 20
-217.3403
 30
338.304
 42
0
 70
32
 0
VERTEX
 8
0
 6
CONTINUOUS
 62
 10
 10
-171.5277
 20
-117.3403
 30
338.304
 42
0
 70
32
 0
VERTEX
 8
0
 6
CONTINUOUS
 62
 10
 10
-143.1551
 20
-117.3403
 30
328.631
 42
0
 70
32
 0
SEQEND
 8
0
 62
 10
 0
POLYLINE
 8
0
 6
CONTINUOUS
 62
 10
 66
1
 10
-143.1551
 20
-117.3403
 30
328.631
 70
9
 0
VERTEX
 8
0
 6
CONTINUOUS
 62
 10
 10
-171.5277
 20
-217.3403
 30
338.304
 42
0
 70
32
 0
VERTEX
 8
0
 6
CONTINUOUS
 62
 10
 10
-191.0967
 20
-217.3403
 30
361.0114
 42
0
 70
32
 0
VERTEX
 8
0
 6
CONTINUOUS
 62
 10
 10
-191.0967
 20
-117.3403
 30
361.0114
 42
0
 70
32
 0
VERTEX
 8
0
 6
CONTINUOUS
 62
 10
 10
-171.5277
 20
-117.3403
 30
338.304
 42
0
 70
32
 0
SEQEND
 8
0
 62
 10
 0
POLYLINE
 8
0
 6
CONTINUOUS
 62
 10
 66
1
 10
-143.1551
 20
-117.3403
 30
328.631
 70
9
 0
VERTEX
 8
0
 6
CONTINUOUS
 62
 10
 10
-191.0967
 20
-217.3403
 30
361.0114
 42
0
 70
32
 0
VERTEX
 8
0
 6
CONTINUOUS
 62
 10
 10
-196.4742
 20
-217.3403
 30
390.5013
 42
0
 70
32
 0
VERTEX
 8
0
 6
CONTINUOUS
 62
 10
 10
-196.4742
 20
-117.3403
 30
390.5013
 42
0
 70
32
 0
VERTEX
 8
0
 6
CONTINUOUS
 62
 10
 10
-191.0967
 20
-117.3403
 30
361.0114
 42
0
 70
32
 0
SEQEND
 8
0
 62
 10
 0
POLYLINE
 8
0
 6
CONTINUOUS
 62
 10
 66
1
 10
-143.1551
 20
-117.3403
 30
328.631
 70
9
 0
VERTEX
 8
0
 6
CONTINUOUS
 62
 10
 10
-196.4742
 20
-217.3403
 30
390.5013
 42
0
 70
32
 0
VERTEX
 8
0
 6
CONTINUOUS
 62
 10
 10
-147.5984
 20
-217.3403
 30
757.4564
 42
0
 70
32
 0
VERTEX
 8
0
 6
CONTINUOUS
 62
 10
 10
-147.5984
 20
-117.3403
 30
757.4564
 42
0
 70
32
 0
VERTEX
 8
0
 6
CONTINUOUS
 62
 10
 10
-196.4742
 20
-117.3403
 30
390.5013
 42
0
 70
32
 0
SEQEND
 8
0
 62
 10
 0
POLYLINE
 8
0
 6
CONTINUOUS
 62
 10
 66
1
 10
-143.1551
 20
-117.3403
 30
328.631
 70
9
 0
VERTEX
 8
0
 6
CONTINUOUS
 62
 10
 10
-147.5984
 20
-217.3403
 30
757.4564
 42
0
 70
32
 0
VERTEX
 8
0
 6
CONTINUOUS
 62
 10
 10
-108.6891
 20
-217.3403
 30
834.0551
 42
0
 70
32
 0
VERTEX
 8
0
 6
CONTINUOUS
 62
 10
 10
-108.6891
 20
-117.3403
 30
834.0551
 42
0
 70
32
 0
VERTEX
 8
0
 6
CONTINUOUS
 62
 10
 10
-147.5984
 20
-117.3403
 30
757.4564
 42
0
 70
32
 0
SEQEND
 8
0
 62
 10
 0
POLYLINE
 8
0
 6
CONTINUOUS
 62
 10
 66
1
 10
-143.1551
 20
-117.3403
 30
328.631
 70
9
 0
VERTEX
 8
0
 6
CONTINUOUS
 62
 10
 10
-108.6891
 20
-217.3403
 30
834.0551
 42
0
 70
32
 0
VERTEX
 8
0
 6
CONTINUOUS
 62
 10
 10
-35.3081
 20
-217.3403
 30
878.7375
 42
0
 70
32
 0
VERTEX
 8
0
 6
CONTINUOUS
 62
 10
 10
-35.3081
 20
-117.3403
 30
878.7375
 42
0
 70
32
 0
VERTEX
 8
0
 6
CONTINUOUS
 62
 10
 10
-108.6891
 20
-117.3403
 30
834.0551
 42
0
 70
32
 0
SEQEND
 8
0
 62
 10
 0
POLYLINE
 8
0
 6
CONTINUOUS
 62
 10
 66
1
 10
-143.1551
 20
-117.3403
 30
328.631
 70
9
 0
VERTEX
 8
0
 6
CONTINUOUS
 62
 10
 10
-35.3081
 20
-217.3403
 30
878.7375
 42
0
 70
32
 0
VERTEX
 8
0
 6
CONTINUOUS
 62
 10
 10
50.6043
 20
-217.3403
 30
878.144
 42
0
 70
32
 0
VERTEX
 8
0
 6
CONTINUOUS
 62
 10
 10
50.6043
 20
-117.3403
 30
878.144
 42
0
 70
32
 0
VERTEX
 8
0
 6
CONTINUOUS
 62
 10
 10
-35.3081
 20
-117.3403
 30
878.7375
 42
0
 70
32
 0
SEQEND
 8
0
 62
 10
 0
POLYLINE
 8
0
 6
CONTINUOUS
 62
 10
 66
1
 10
-143.1551
 20
-117.3403
 30
328.631
 70
9
 0
VERTEX
 8
0
 6
CONTINUOUS
 62
 10
 10
50.6043
 20
-217.3403
 30
878.144
 42
0
 70
32
 0
VERTEX
 8
0
 6
CONTINUOUS
 62
 10
 10
123.361
 20
-217.3403
 30
832.4519
 42
0
 70
32
 0
VERTEX
 8
0
 6
CONTINUOUS
 62
 10
 10
123.361
 20
-117.3403
 30
832.4519
 42
0
 70
32
 0
VERTEX
 8
0
 6
CONTINUOUS
 62
 10
 10
50.6043
 20
-117.3403
 30
878.144
 42
0
 70
32
 0
SEQEND
 8
0
 62
 10
 0
POLYLINE
 8
0
 6
CONTINUOUS
 62
 10
 66
1
 10
-143.1551
 20
-117.3403
 30
328.631
 70
9
 0
VERTEX
 8
0
 6
CONTINUOUS
 62
 10
 10
123.361
 20
-217.3403
 30
832.4519
 42
0
 70
32
 0
VERTEX
 8
0
 6
CONTINUOUS
 62
 10
 10
161.2082
 20
-217.3403
 30
755.3229
 42
0
 70
32
 0
VERTEX
 8
0
 6
CONTINUOUS
 62
 10
 10
161.2082
 20
-117.3403
 30
755.3229
 42
0
 70
32
 0
VERTEX
 8
0
 6
CONTINUOUS
 62
 10
 10
123.361
 20
-117.3403
 30
832.4519
 42
0
 70
32
 0
SEQEND
 8
0
 62
 10
 0
POLYLINE
 8
0
 6
CONTINUOUS
 62
 10
 66
1
 10
-143.1551
 20
-117.3403
 30
328.631
 70
9
 0
VERTEX
 8
0
 6
CONTINUOUS
 62
 10
 10
161.2082
 20
-217.3403
 30
755.3229
 42
0
 70
32
 0
VERTEX
 8
0
 6
CONTINUOUS
 62
 10
 10
212.3057
 20
-217.3403
 30
388.3678
 42
0
 70
32
 0
VERTEX
 8
0
 6
CONTINUOUS
 62
 10
 10
212.3057
 20
-117.3403
 30
388.3678
 42
0
 70
32
 0
VERTEX
 8
0
 6
CONTINUOUS
 62
 10
 10
161.2082
 20
-117.3403
 30
755.3229
 42
0
 70
32
 0
SEQEND
 8
0
 62
 10
 0
POLYLINE
 8
0
 6
CONTINUOUS
 62
 10
 66
1
 10
-143.1551
 20
-117.3403
 30
328.631
 70
9
 0
VERTEX
 8
0
 6
CONTINUOUS
 62
 10
 10
212.3057
 20
-217.3403
 30
388.3678
 42
0
 70
32
 0
VERTEX
 8
0
 6
CONTINUOUS
 62
 10
 10
209.5342
 20
-217.3403
 30
359.5046
 42
0
 70
32
 0
VERTEX
 8
0
 6
CONTINUOUS
 62
 10
 10
209.5342
 20
-117.3403
 30
359.5046
 42
0
 70
32
 0
VERTEX
 8
0
 6
CONTINUOUS
 62
 10
 10
212.3057
 20
-117.3403
 30
388.3678
 42
0
 70
32
 0
SEQEND
 8
0
 62
 10
 0
POLYLINE
 8
0
 6
CONTINUOUS
 62
 10
 66
1
 10
-143.1551
 20
-117.3403
 30
328.631
 70
9
 0
VERTEX
 8
0
 6
CONTINUOUS
 62
 10
 10
209.5342
 20
-217.3403
 30
359.5046
 42
0
 70
32
 0
VERTEX
 8
0
 6
CONTINUOUS
 62
 10
 10
191.1728
 20
-217.3403
 30
337.0629
 42
0
 70
32
 0
VERTEX
 8
0
 6
CONTINUOUS
 62
 10
 10
191.1728
 20
-117.3403
 30
337.0629
 42
0
 70
32
 0
VERTEX
 8
0
 6
CONTINUOUS
 62
 10
 10
209.5342
 20
-117.3403
 30
359.5046
 42
0
 70
32
 0
SEQEND
 8
0
 62
 10
 0
POLYLINE
 8
0
 6
CONTINUOUS
 62
 10
 66
1
 10
-143.1551
 20
-117.3403
 30
328.631
 70
9
 0
VERTEX
 8
0
 6
CONTINUOUS
 62
 10
 10
191.1728
 20
-217.3403
 30
337.0629
 42
0
 70
32
 0
VERTEX
 8
0
 6
CONTINUOUS
 62
 10
 10
163.4298
 20
-217.3403
 30
328.631
 42
0
 70
32
 0
VERTEX
 8
0
 6
CONTINUOUS
 62
 10
 10
163.4298
 20
-117.3403
 30
328.631
 42
0
 70
32
 0
VERTEX
 8
0
 6
CONTINUOUS
 62
 10
 10
191.1728
 20
-117.3403
 30
337.0629
 42
0
 70
32
 0
SEQEND
 8
0
 62
 10
 0
POLYLINE
 8
0
 6
CONTINUOUS
 62
 10
 66
1
 10
156.7649
 20
-220.9521
 30
766.4444
 70
9
 0
VERTEX
 8
0
 6
CONTINUOUS
 62
 10
 10
205.2131
 20
-220.9521
 30
358.0495
 42
0
 70
32
 0
VERTEX
 8
0
 6
CONTINUOUS
 62
 10
 10
170.7279
 20
-220.9521
 30
338.5692
 42
0
 70
32
 0
VERTEX
 8
0
 6
CONTINUOUS
 62
 10
 10
134.5486
 20
-220.9521
 30
354.6867
 42
0
 70
32
 0
VERTEX
 8
0
 6
CONTINUOUS
 62
 10
 10
-129.8253
 20
-220.9521
 30
640.5703
 42
0
 70
32
 0
VERTEX
 8
0
 6
CONTINUOUS
 62
 10
 10
-153.8083
 20
-220.9521
 30
713.9605
 42
0
 70
32
 0
VERTEX
 8
0
 6
CONTINUOUS
 62
 10
 10
-140.6001
 20
-220.9521
 30
790.0319
 42
0
 70
32
 0
VERTEX
 8
0
 6
CONTINUOUS
 62
 10
 10
-93.2815
 20
-220.9521
 30
851.0422
 42
0
 70
32
 0
VERTEX
 8
0
 6
CONTINUOUS
 62
 10
 10
-22.8885
 20
-220.9521
 30
882.7618
 42
0
 70
32
 0
VERTEX
 8
0
 6
CONTINUOUS
 62
 10
 10
54.1609
 20
-220.9521
 30
877.7929
 42
0
 70
32
 0
VERTEX
 8
0
 6
CONTINUOUS
 62
 10
 10
119.8965
 20
-220.9521
 30
837.2942
 42
0
 70
32
 0
VERTEX
 8
0
 6
CONTINUOUS
 62
 10
 10
158.9865
 20
-220.9521
 30
770.7114
 42
0
 70
32
 0
VERTEX
 8
0
 6
CONTINUOUS
 62
 10
 10
210.084
 20
-220.9521
 30
397.3559
 42
0
 70
32
 0
SEQEND
 8
0
 62
 10
 0
POLYLINE
 8
0
 6
CONTINUOUS
 62
 10
 66
1
 10
156.7649
 20
-220.9521
 30
766.4444
 70
9
 0
VERTEX
 8
0
 6
CONTINUOUS
 62
 10
 10
205.2131
 20
-250.9521
 30
358.0495
 42
0
 70
32
 0
VERTEX
 8
0
 6
CONTINUOUS
 62
 10
 10
210.084
 20
-250.9521
 30
397.3559
 42
0
 70
32
 0
VERTEX
 8
0
 6
CONTINUOUS
 62
 10
 10
158.9865
 20
-250.9521
 30
770.7114
 42
0
 70
32
 0
VERTEX
 8
0
 6
CONTINUOUS
 62
 10
 10
119.8965
 20
-250.9521
 30
837.2942
 42
0
 70
32
 0
VERTEX
 8
0
 6
CONTINUOUS
 62
 10
 10
54.1609
 20
-250.9521
 30
877.7929
 42
0
 70
32
 0
VERTEX
 8
0
 6
CONTINUOUS
 62
 10
 10
-22.8885
 20
-250.9521
 30
882.7618
 42
0
 70
32
 0
VERTEX
 8
0
 6
CONTINUOUS
 62
 10
 10
-93.2815
 20
-250.9521
 30
851.0422
 42
0
 70
32
 0
VERTEX
 8
0
 6
CONTINUOUS
 62
 10
 10
-140.6001
 20
-250.9521
 30
790.0319
 42
0
 70
32
 0
VERTEX
 8
0
 6
CONTINUOUS
 62
 10
 10
-153.8083
 20
-250.9521
 30
713.9605
 42
0
 70
32
 0
VERTEX
 8
0
 6
CONTINUOUS
 62
 10
 10
-129.8253
 20
-250.9521
 30
640.5703
 42
0
 70
32
 0
VERTEX
 8
0
 6
CONTINUOUS
 62
 10
 10
134.5486
 20
-250.9521
 30
354.6867
 42
0
 70
32
 0
VERTEX
 8
0
 6
CONTINUOUS
 62
 10
 10
170.7279
 20
-250.9521
 30
338.5692
 42
0
 70
32
 0
SEQEND
 8
0
 62
 10
 0
POLYLINE
 8
0
 6
CONTINUOUS
 62
 10
 66
1
 10
156.7649
 20
-220.9521
 30
766.4444
 70
9
 0
VERTEX
 8
0
 6
CONTINUOUS
 62
 10
 10
205.2131
 20
-250.9521
 30
358.0495
 42
0
 70
32
 0
VERTEX
 8
0
 6
CONTINUOUS
 62
 10
 10
170.7279
 20
-250.9521
 30
338.5692
 42
0
 70
32
 0
VERTEX
 8
0
 6
CONTINUOUS
 62
 10
 10
170.7279
 20
-220.9521
 30
338.5692
 42
0
 70
32
 0
VERTEX
 8
0
 6
CONTINUOUS
 62
 10
 10
205.2131
 20
-220.9521
 30
358.0495
 42
0
 70
32
 0
SEQEND
 8
0
 62
 10
 0
POLYLINE
 8
0
 6
CONTINUOUS
 62
 10
 66
1
 10
156.7649
 20
-220.9521
 30
766.4444
 70
9
 0
VERTEX
 8
0
 6
CONTINUOUS
 62
 10
 10
170.7279
 20
-250.9521
 30
338.5692
 42
0
 70
32
 0
VERTEX
 8
0
 6
CONTINUOUS
 62
 10
 10
134.5486
 20
-250.9521
 30
354.6867
 42
0
 70
32
 0
VERTEX
 8
0
 6
CONTINUOUS
 62
 10
 10
134.5486
 20
-220.9521
 30
354.6867
 42
0
 70
32
 0
VERTEX
 8
0
 6
CONTINUOUS
 62
 10
 10
170.7279
 20
-220.9521
 30
338.5692
 42
0
 70
32
 0
SEQEND
 8
0
 62
 10
 0
POLYLINE
 8
0
 6
CONTINUOUS
 62
 10
 66
1
 10
156.7649
 20
-220.9521
 30
766.4444
 70
9
 0
VERTEX
 8
0
 6
CONTINUOUS
 62
 10
 10
134.5486
 20
-250.9521
 30
354.6867
 42
0
 70
32
 0
VERTEX
 8
0
 6
CONTINUOUS
 62
 10
 10
-129.8253
 20
-250.9521
 30
640.5703
 42
0
 70
32
 0
VERTEX
 8
0
 6
CONTINUOUS
 62
 10
 10
-129.8253
 20
-220.9521
 30
640.5703
 42
0
 70
32
 0
VERTEX
 8
0
 6
CONTINUOUS
 62
 10
 10
134.5486
 20
-220.9521
 30
354.6867
 42
0
 70
32
 0
SEQEND
 8
0
 62
 10
 0
POLYLINE
 8
0
 6
CONTINUOUS
 62
 10
 66
1
 10
156.7649
 20
-220.9521
 30
766.4444
 70
9
 0
VERTEX
 8
0
 6
CONTINUOUS
 62
 10
 10
-129.8253
 20
-250.9521
 30
640.5703
 42
0
 70
32
 0
VERTEX
 8
0
 6
CONTINUOUS
 62
 10
 10
-153.8083
 20
-250.9521
 30
713.9605
 42
0
 70
32
 0
VERTEX
 8
0
 6
CONTINUOUS
 62
 10
 10
-153.8083
 20
-220.9521
 30
713.9605
 42
0
 70
32
 0
VERTEX
 8
0
 6
CONTINUOUS
 62
 10
 10
-129.8253
 20
-220.9521
 30
640.5703
 42
0
 70
32
 0
SEQEND
 8
0
 62
 10
 0
POLYLINE
 8
0
 6
CONTINUOUS
 62
 10
 66
1
 10
156.7649
 20
-220.9521
 30
766.4444
 70
9
 0
VERTEX
 8
0
 6
CONTINUOUS
 62
 10
 10
-153.8083
 20
-250.9521
 30
713.9605
 42
0
 70
32
 0
VERTEX
 8
0
 6
CONTINUOUS
 62
 10
 10
-140.6001
 20
-250.9521
 30
790.0319
 42
0
 70
32
 0
VERTEX
 8
0
 6
CONTINUOUS
 62
 10
 10
-140.6001
 20
-220.9521
 30
790.0319
 42
0
 70
32
 0
VERTEX
 8
0
 6
CONTINUOUS
 62
 10
 10
-153.8083
 20
-220.9521
 30
713.9605
 42
0
 70
32
 0
SEQEND
 8
0
 62
 10
 0
POLYLINE
 8
0
 6
CONTINUOUS
 62
 10
 66
1
 10
156.7649
 20
-220.9521
 30
766.4444
 70
9
 0
VERTEX
 8
0
 6
CONTINUOUS
 62
 10
 10
-140.6001
 20
-250.9521
 30
790.0319
 42
0
 70
32
 0
VERTEX
 8
0
 6
CONTINUOUS
 62
 10
 10
-93.2815
 20
-250.9521
 30
851.0422
 42
0
 70
32
 0
VERTEX
 8
0
 6
CONTINUOUS
 62
 10
 10
-93.2815
 20
-220.9521
 30
851.0422
 42
0
 70
32
 0
VERTEX
 8
0
 6
CONTINUOUS
 62
 10
 10
-140.6001
 20
-220.9521
 30
790.0319
 42
0
 70
32
 0
SEQEND
 8
0
 62
 10
 0
POLYLINE
 8
0
 6
CONTINUOUS
 62
 10
 66
1
 10
156.7649
 20
-220.9521
 30
766.4444
 70
9
 0
VERTEX
 8
0
 6
CONTINUOUS
 62
 10
 10
-93.2815
 20
-250.9521
 30
851.0422
 42
0
 70
32
 0
VERTEX
 8
0
 6
CONTINUOUS
 62
 10
 10
-22.8885
 20
-250.9521
 30
882.7618
 42
0
 70
32
 0
VERTEX
 8
0
 6
CONTINUOUS
 62
 10
 10
-22.8885
 20
-220.9521
 30
882.7618
 42
0
 70
32
 0
VERTEX
 8
0
 6
CONTINUOUS
 62
 10
 10
-93.2815
 20
-220.9521
 30
851.0422
 42
0
 70
32
 0
SEQEND
 8
0
 62
 10
 0
POLYLINE
 8
0
 6
CONTINUOUS
 62
 10
 66
1
 10
156.7649
 20
-220.9521
 30
766.4444
 70
9
 0
VERTEX
 8
0
 6
CONTINUOUS
 62
 10
 10
-22.8885
 20
-250.9521
 30
882.7618
 42
0
 70
32
 0
VERTEX
 8
0
 6
CONTINUOUS
 62
 10
 10
54.1609
 20
-250.9521
 30
877.7929
 42
0
 70
32
 0
VERTEX
 8
0
 6
CONTINUOUS
 62
 10
 10
54.1609
 20
-220.9521
 30
877.7929
 42
0
 70
32
 0
VERTEX
 8
0
 6
CONTINUOUS
 62
 10
 10
-22.8885
 20
-220.9521
 30
882.7618
 42
0
 70
32
 0
SEQEND
 8
0
 62
 10
 0
POLYLINE
 8
0
 6
CONTINUOUS
 62
 10
 66
1
 10
156.7649
 20
-220.9521
 30
766.4444
 70
9
 0
VERTEX
 8
0
 6
CONTINUOUS
 62
 10
 10
54.1609
 20
-250.9521
 30
877.7929
 42
0
 70
32
 0
VERTEX
 8
0
 6
CONTINUOUS
 62
 10
 10
119.8965
 20
-250.9521
 30
837.2942
 42
0
 70
32
 0
VERTEX
 8
0
 6
CONTINUOUS
 62
 10
 10
119.8965
 20
-220.9521
 30
837.2942
 42
0
 70
32
 0
VERTEX
 8
0
 6
CONTINUOUS
 62
 10
 10
54.1609
 20
-220.9521
 30
877.7929
 42
0
 70
32
 0
SEQEND
 8
0
 62
 10
 0
POLYLINE
 8
0
 6
CONTINUOUS
 62
 10
 66
1
 10
156.7649
 20
-220.9521
 30
766.4444
 70
9
 0
VERTEX
 8
0
 6
CONTINUOUS
 62
 10
 10
119.8965
 20
-250.9521
 30
837.2942
 42
0
 70
32
 0
VERTEX
 8
0
 6
CONTINUOUS
 62
 10
 10
158.9865
 20
-250.9521
 30
770.7114
 42
0
 70
32
 0
VERTEX
 8
0
 6
CONTINUOUS
 62
 10
 10
158.9865
 20
-220.9521
 30
770.7114
 42
0
 70
32
 0
VERTEX
 8
0
 6
CONTINUOUS
 62
 10
 10
119.8965
 20
-220.9521
 30
837.2942
 42
0
 70
32
 0
SEQEND
 8
0
 62
 10
 0
POLYLINE
 8
0
 6
CONTINUOUS
 62
 10
 66
1
 10
156.7649
 20
-220.9521
 30
766.4444
 70
9
 0
VERTEX
 8
0
 6
CONTINUOUS
 62
 10
 10
158.9865
 20
-250.9521
 30
770.7114
 42
0
 70
32
 0
VERTEX
 8
0
 6
CONTINUOUS
 62
 10
 10
210.084
 20
-250.9521
 30
397.3559
 42
0
 70
32
 0
VERTEX
 8
0
 6
CONTINUOUS
 62
 10
 10
210.084
 20
-220.9521
 30
397.3559
 42
0
 70
32
 0
VERTEX
 8
0
 6
CONTINUOUS
 62
 10
 10
158.9865
 20
-220.9521
 30
770.7114
 42
0
 70
32
 0
SEQEND
 8
0
 62
 10
 0
POLYLINE
 8
0
 6
CONTINUOUS
 62
 10
 66
1
 10
156.7649
 20
-220.9521
 30
766.4444
 70
9
 0
VERTEX
 8
0
 6
CONTINUOUS
 62
 10
 10
210.084
 20
-250.9521
 30
397.3559
 42
0
 70
32
 0
VERTEX
 8
0
 6
CONTINUOUS
 62
 10
 10
205.2131
 20
-250.9521
 30
358.0495
 42
0
 70
32
 0
VERTEX
 8
0
 6
CONTINUOUS
 62
 10
 10
205.2131
 20
-220.9521
 30
358.0495
 42
0
 70
32
 0
VERTEX
 8
0
 6
CONTINUOUS
 62
 10
 10
210.084
 20
-220.9521
 30
397.3559
 42
0
 70
32
 0
SEQEND
 8
0
 62
 10
 0
POLYLINE
 8
0
 6
CONTINUOUS
 62
 10
 66
1
 10
-143.9597
 20
226.5562
 30
766.4444
 70
9
 0
VERTEX
 8
0
 6
CONTINUOUS
 62
 10
 10
-192.4079
 20
226.5562
 30
358.0495
 42
0
 70
32
 0
VERTEX
 8
0
 6
CONTINUOUS
 62
 10
 10
-157.9227
 20
226.5562
 30
338.5692
 42
0
 70
32
 0
VERTEX
 8
0
 6
CONTINUOUS
 62
 10
 10
-121.7434
 20
226.5562
 30
354.6867
 42
0
 70
32
 0
VERTEX
 8
0
 6
CONTINUOUS
 62
 10
 10
142.6305
 20
226.5562
 30
640.5703
 42
0
 70
32
 0
VERTEX
 8
0
 6
CONTINUOUS
 62
 10
 10
166.6135
 20
226.5562
 30
713.9605
 42
0
 70
32
 0
VERTEX
 8
0
 6
CONTINUOUS
 62
 10
 10
153.4054
 20
226.5562
 30
790.0319
 42
0
 70
32
 0
VERTEX
 8
0
 6
CONTINUOUS
 62
 10
 10
106.0867
 20
226.5562
 30
851.0422
 42
0
 70
32
 0
VERTEX
 8
0
 6
CONTINUOUS
 62
 10
 10
35.6937
 20
226.5562
 30
882.7618
 42
0
 70
32
 0
VERTEX
 8
0
 6
CONTINUOUS
 62
 10
 10
-41.3557
 20
226.5562
 30
877.7929
 42
0
 70
32
 0
VERTEX
 8
0
 6
CONTINUOUS
 62
 10
 10
-107.0913
 20
226.5562
 30
837.2942
 42
0
 70
32
 0
VERTEX
 8
0
 6
CONTINUOUS
 62
 10
 10
-146.1813
 20
226.5562
 30
770.7114
 42
0
 70
32
 0
VERTEX
 8
0
 6
CONTINUOUS
 62
 10
 10
-197.2788
 20
226.5562
 30
397.3559
 42
0
 70
32
 0
SEQEND
 8
0
 62
 10
 0
POLYLINE
 8
0
 6
CONTINUOUS
 62
 10
 66
1
 10
-143.9597
 20
226.5562
 30
766.4444
 70
9
 0
VERTEX
 8
0
 6
CONTINUOUS
 62
 10
 10
-192.4079
 20
256.5562
 30
358.0495
 42
0
 70
32
 0
VERTEX
 8
0
 6
CONTINUOUS
 62
 10
 10
-197.2788
 20
256.5562
 30
397.3559
 42
0
 70
32
 0
VERTEX
 8
0
 6
CONTINUOUS
 62
 10
 10
-146.1813
 20
256.5562
 30
770.7114
 42
0
 70
32
 0
VERTEX
 8
0
 6
CONTINUOUS
 62
 10
 10
-107.0913
 20
256.5562
 30
837.2942
 42
0
 70
32
 0
VERTEX
 8
0
 6
CONTINUOUS
 62
 10
 10
-41.3557
 20
256.5562
 30
877.7929
 42
0
 70
32
 0
VERTEX
 8
0
 6
CONTINUOUS
 62
 10
 10
35.6937
 20
256.5562
 30
882.7618
 42
0
 70
32
 0
VERTEX
 8
0
 6
CONTINUOUS
 62
 10
 10
106.0867
 20
256.5562
 30
851.0422
 42
0
 70
32
 0
VERTEX
 8
0
 6
CONTINUOUS
 62
 10
 10
153.4054
 20
256.5562
 30
790.0319
 42
0
 70
32
 0
VERTEX
 8
0
 6
CONTINUOUS
 62
 10
 10
166.6135
 20
256.5562
 30
713.9605
 42
0
 70
32
 0
VERTEX
 8
0
 6
CONTINUOUS
 62
 10
 10
142.6305
 20
256.5562
 30
640.5703
 42
0
 70
32
 0
VERTEX
 8
0
 6
CONTINUOUS
 62
 10
 10
-121.7434
 20
256.5562
 30
354.6867
 42
0
 70
32
 0
VERTEX
 8
0
 6
CONTINUOUS
 62
 10
 10
-157.9227
 20
256.5562
 30
338.5692
 42
0
 70
32
 0
SEQEND
 8
0
 62
 10
 0
POLYLINE
 8
0
 6
CONTINUOUS
 62
 10
 66
1
 10
-143.9597
 20
226.5562
 30
766.4444
 70
9
 0
VERTEX
 8
0
 6
CONTINUOUS
 62
 10
 10
-192.4079
 20
256.5562
 30
358.0495
 42
0
 70
32
 0
VERTEX
 8
0
 6
CONTINUOUS
 62
 10
 10
-157.9227
 20
256.5562
 30
338.5692
 42
0
 70
32
 0
VERTEX
 8
0
 6
CONTINUOUS
 62
 10
 10
-157.9227
 20
226.5562
 30
338.5692
 42
0
 70
32
 0
VERTEX
 8
0
 6
CONTINUOUS
 62
 10
 10
-192.4079
 20
226.5562
 30
358.0495
 42
0
 70
32
 0
SEQEND
 8
0
 62
 10
 0
POLYLINE
 8
0
 6
CONTINUOUS
 62
 10
 66
1
 10
-143.9597
 20
226.5562
 30
766.4444
 70
9
 0
VERTEX
 8
0
 6
CONTINUOUS
 62
 10
 10
-157.9227
 20
256.5562
 30
338.5692
 42
0
 70
32
 0
VERTEX
 8
0
 6
CONTINUOUS
 62
 10
 10
-121.7434
 20
256.5562
 30
354.6867
 42
0
 70
32
 0
VERTEX
 8
0
 6
CONTINUOUS
 62
 10
 10
-121.7434
 20
226.5562
 30
354.6867
 42
0
 70
32
 0
VERTEX
 8
0
 6
CONTINUOUS
 62
 10
 10
-157.9227
 20
226.5562
 30
338.5692
 42
0
 70
32
 0
SEQEND
 8
0
 62
 10
 0
POLYLINE
 8
0
 6
CONTINUOUS
 62
 10
 66
1
 10
-143.9597
 20
226.5562
 30
766.4444
 70
9
 0
VERTEX
 8
0
 6
CONTINUOUS
 62
 10
 10
-121.7434
 20
256.5562
 30
354.6867
 42
0
 70
32
 0
VERTEX
 8
0
 6
CONTINUOUS
 62
 10
 10
142.6305
 20
256.5562
 30
640.5703
 42
0
 70
32
 0
VERTEX
 8
0
 6
CONTINUOUS
 62
 10
 10
142.6305
 20
226.5562
 30
640.5703
 42
0
 70
32
 0
VERTEX
 8
0
 6
CONTINUOUS
 62
 10
 10
-121.7434
 20
226.5562
 30
354.6867
 42
0
 70
32
 0
SEQEND
 8
0
 62
 10
 0
POLYLINE
 8
0
 6
CONTINUOUS
 62
 10
 66
1
 10
-143.9597
 20
226.5562
 30
766.4444
 70
9
 0
VERTEX
 8
0
 6
CONTINUOUS
 62
 10
 10
142.6305
 20
256.5562
 30
640.5703
 42
0
 70
32
 0
VERTEX
 8
0
 6
CONTINUOUS
 62
 10
 10
166.6135
 20
256.5562
 30
713.9605
 42
0
 70
32
 0
VERTEX
 8
0
 6
CONTINUOUS
 62
 10
 10
166.6135
 20
226.5562
 30
713.9605
 42
0
 70
32
 0
VERTEX
 8
0
 6
CONTINUOUS
 62
 10
 10
142.6305
 20
226.5562
 30
640.5703
 42
0
 70
32
 0
SEQEND
 8
0
 62
 10
 0
POLYLINE
 8
0
 6
CONTINUOUS
 62
 10
 66
1
 10
-143.9597
 20
226.5562
 30
766.4444
 70
9
 0
VERTEX
 8
0
 6
CONTINUOUS
 62
 10
 10
166.6135
 20
256.5562
 30
713.9605
 42
0
 70
32
 0
VERTEX
 8
0
 6
CONTINUOUS
 62
 10
 10
153.4054
 20
256.5562
 30
790.0319
 42
0
 70
32
 0
VERTEX
 8
0
 6
CONTINUOUS
 62
 10
 10
153.4054
 20
226.5562
 30
790.0319
 42
0
 70
32
 0
VERTEX
 8
0
 6
CONTINUOUS
 62
 10
 10
166.6135
 20
226.5562
 30
713.9605
 42
0
 70
32
 0
SEQEND
 8
0
 62
 10
 0
POLYLINE
 8
0
 6
CONTINUOUS
 62
 10
 66
1
 10
-143.9597
 20
226.5562
 30
766.4444
 70
9
 0
VERTEX
 8
0
 6
CONTINUOUS
 62
 10
 10
153.4054
 20
256.5562
 30
790.0319
 42
0
 70
32
 0
VERTEX
 8
0
 6
CONTINUOUS
 62
 10
 10
106.0867
 20
256.5562
 30
851.0422
 42
0
 70
32
 0
VERTEX
 8
0
 6
CONTINUOUS
 62
 10
 10
106.0867
 20
226.5562
 30
851.0422
 42
0
 70
32
 0
VERTEX
 8
0
 6
CONTINUOUS
 62
 10
 10
153.4054
 20
226.5562
 30
790.0319
 42
0
 70
32
 0
SEQEND
 8
0
 62
 10
 0
POLYLINE
 8
0
 6
CONTINUOUS
 62
 10
 66
1
 10
-143.9597
 20
226.5562
 30
766.4444
 70
9
 0
VERTEX
 8
0
 6
CONTINUOUS
 62
 10
 10
106.0867
 20
256.5562
 30
851.0422
 42
0
 70
32
 0
VERTEX
 8
0
 6
CONTINUOUS
 62
 10
 10
35.6937
 20
256.5562
 30
882.7618
 42
0
 70
32
 0
VERTEX
 8
0
 6
CONTINUOUS
 62
 10
 10
35.6937
 20
226.5562
 30
882.7618
 42
0
 70
32
 0
VERTEX
 8
0
 6
CONTINUOUS
 62
 10
 10
106.0867
 20
226.5562
 30
851.0422
 42
0
 70
32
 0
SEQEND
 8
0
 62
 10
 0
POLYLINE
 8
0
 6
CONTINUOUS
 62
 10
 66
1
 10
-143.9597
 20
226.5562
 30
766.4444
 70
9
 0
VERTEX
 8
0
 6
CONTINUOUS
 62
 10
 10
35.6937
 20
256.5562
 30
882.7618
 42
0
 70
32
 0
VERTEX
 8
0
 6
CONTINUOUS
 62
 10
 10
-41.3557
 20
256.5562
 30
877.7929
 42
0
 70
32
 0
VERTEX
 8
0
 6
CONTINUOUS
 62
 10
 10
-41.3557
 20
226.5562
 30
877.7929
 42
0
 70
32
 0
VERTEX
 8
0
 6
CONTINUOUS
 62
 10
 10
35.6937
 20
226.5562
 30
882.7618
 42
0
 70
32
 0
SEQEND
 8
0
 62
 10
 0
POLYLINE
 8
0
 6
CONTINUOUS
 62
 10
 66
1
 10
-143.9597
 20
226.5562
 30
766.4444
 70
9
 0
VERTEX
 8
0
 6
CONTINUOUS
 62
 10
 10
-41.3557
 20
256.5562
 30
877.7929
 42
0
 70
32
 0
VERTEX
 8
0
 6
CONTINUOUS
 62
 10
 10
-107.0913
 20
256.5562
 30
837.2942
 42
0
 70
32
 0
VERTEX
 8
0
 6
CONTINUOUS
 62
 10
 10
-107.0913
 20
226.5562
 30
837.2942
 42
0
 70
32
 0
VERTEX
 8
0
 6
CONTINUOUS
 62
 10
 10
-41.3557
 20
226.5562
 30
877.7929
 42
0
 70
32
 0
SEQEND
 8
0
 62
 10
 0
POLYLINE
 8
0
 6
CONTINUOUS
 62
 10
 66
1
 10
-143.9597
 20
226.5562
 30
766.4444
 70
9
 0
VERTEX
 8
0
 6
CONTINUOUS
 62
 10
 10
-107.0913
 20
256.5562
 30
837.2942
 42
0
 70
32
 0
VERTEX
 8
0
 6
CONTINUOUS
 62
 10
 10
-146.1813
 20
256.5562
 30
770.7114
 42
0
 70
32
 0
VERTEX
 8
0
 6
CONTINUOUS
 62
 10
 10
-146.1813
 20
226.5562
 30
770.7114
 42
0
 70
32
 0
VERTEX
 8
0
 6
CONTINUOUS
 62
 10
 10
-107.0913
 20
226.5562
 30
837.2942
 42
0
 70
32
 0
SEQEND
 8
0
 62
 10
 0
POLYLINE
 8
0
 6
CONTINUOUS
 62
 10
 66
1
 10
-143.9597
 20
226.5562
 30
766.4444
 70
9
 0
VERTEX
 8
0
 6
CONTINUOUS
 62
 10
 10
-146.1813
 20
256.5562
 30
770.7114
 42
0
 70
32
 0
VERTEX
 8
0
 6
CONTINUOUS
 62
 10
 10
-197.2788
 20
256.5562
 30
397.3559
 42
0
 70
32
 0
VERTEX
 8
0
 6
CONTINUOUS
 62
 10
 10
-197.2788
 20
226.5562
 30
397.3559
 42
0
 70
32
 0
VERTEX
 8
0
 6
CONTINUOUS
 62
 10
 10
-146.1813
 20
226.5562
 30
770.7114
 42
0
 70
32
 0
SEQEND
 8
0
 62
 10
 0
POLYLINE
 8
0
 6
CONTINUOUS
 62
 10
 66
1
 10
-143.9597
 20
226.5562
 30
766.4444
 70
9
 0
VERTEX
 8
0
 6
CONTINUOUS
 62
 10
 10
-197.2788
 20
256.5562
 30
397.3559
 42
0
 70
32
 0
VERTEX
 8
0
 6
CONTINUOUS
 62
 10
 10
-192.4079
 20
256.5562
 30
358.0495
 42
0
 70
32
 0
VERTEX
 8
0
 6
CONTINUOUS
 62
 10
 10
-192.4079
 20
226.5562
 30
358.0495
 42
0
 70
32
 0
VERTEX
 8
0
 6
CONTINUOUS
 62
 10
 10
-197.2788
 20
226.5562
 30
397.3559
 42
0
 70
32
 0
SEQEND
 8
0
 62
 10
0
ENDSEC
0
EOF
